999
dxflib 2.0.4.8
  0
SECTION
  2
HEADER
  9
$ACADVER
  1
AC1015
  9
$HANDSEED
  5
FFFF
  9
$DIMASZ
 40
2.5
  9
$DIMGAP
 40
0.625
  9
$DIMEXO
 40
0.625
  9
$INSUNITS
 70
4
  9
$DIMTXT
 40
2.5
  9
$PLIMMAX
 10
210.0
 20
297.0
  9
$PLIMMIN
 10
0.0
 20
0.0
  9
$DIMEXE
 40
1.25
  0
ENDSEC
  0
SECTION
  2
TABLES
  0
TABLE
  2
VPORT
  5
8
100
AcDbSymbolTable
 70
1
  0
VPORT
  5
30
100
AcDbSymbolTableRecord
100
AcDbViewportTableRecord
  2
*Active
 70
0
 10
0.0
 20
0.0
 11
1.0
 21
1.0
 12
286.3055555555554861
 22
148.5
 13
0.0
 23
0.0
 14
10.0
 24
10.0
 15
10.0
 25
10.0
 16
0.0
 26
0.0
 36
1.0
 17
0.0
 27
0.0
 37
0.0
 40
297.0
 41
1.92798353909465
 42
50.0
 43
0.0
 44
0.0
 50
0.0
 51
0.0
 71
0
 72
100
 73
1
 74
3
 75
1
 76
1
 77
0
 78
0
281
0
 65
1
110
0.0
120
0.0
130
0.0
111
1.0
121
0.0
131
0.0
112
0.0
122
1.0
132
0.0
 79
0
146
0.0
  0
ENDTAB
  0
TABLE
  2
LTYPE
  5
5
100
AcDbSymbolTable
 70
21
  0
LTYPE
  5
14
100
AcDbSymbolTableRecord
100
AcDbLinetypeTableRecord
  2
ByBlock
 70
0
  3

 72
65
 73
0
 40
0.0
  0
LTYPE
  5
15
100
AcDbSymbolTableRecord
100
AcDbLinetypeTableRecord
  2
ByLayer
 70
0
  3

 72
65
 73
0
 40
0.0
  0
LTYPE
  5
16
100
AcDbSymbolTableRecord
100
AcDbLinetypeTableRecord
  2
CONTINUOUS
 70
0
  3
Solid line
 72
65
 73
0
 40
0.0
  0
LTYPE
  5
31
100
AcDbSymbolTableRecord
100
AcDbLinetypeTableRecord
  2
DOT
 70
0
  3
Dot . . . . . . . . . . . . . . . . . . . . . .
 72
65
 73
2
 40
6.3499999999999996
 49
0.0
 74
0
 49
-6.3499999999999996
 74
0
  0
LTYPE
  5
32
100
AcDbSymbolTableRecord
100
AcDbLinetypeTableRecord
  2
DOT2
 70
0
  3
Dot (.5x) .....................................
 72
65
 73
2
 40
3.1749999999999998
 49
0.0
 74
0
 49
-3.1749999999999998
 74
0
  0
LTYPE
  5
33
100
AcDbSymbolTableRecord
100
AcDbLinetypeTableRecord
  2
DOTX2
 70
0
  3
Dot (2x) .  .  .  .  .  .  .  .  .  .  .  .  .
 72
65
 73
2
 40
12.6999999999999993
 49
0.0
 74
0
 49
-12.6999999999999993
 74
0
  0
LTYPE
  5
34
100
AcDbSymbolTableRecord
100
AcDbLinetypeTableRecord
  2
DASHED
 70
0
  3
Dashed __ __ __ __ __ __ __ __ __ __ __ __ __ _
 72
65
 73
2
 40
19.0500000000000007
 49
12.6999999999999993
 74
0
 49
-6.3499999999999996
 74
0
  0
LTYPE
  5
35
100
AcDbSymbolTableRecord
100
AcDbLinetypeTableRecord
  2
DASHED2
 70
0
  3
Dashed (.5x) _ _ _ _ _ _ _ _ _ _ _ _ _ _ _ _ _
 72
65
 73
2
 40
9.5250000000000004
 49
6.3499999999999996
 74
0
 49
-3.1749999999999998
 74
0
  0
LTYPE
  5
36
100
AcDbSymbolTableRecord
100
AcDbLinetypeTableRecord
  2
DASHEDX2
 70
0
  3
Dashed (2x) ____  ____  ____  ____  ____  ___
 72
65
 73
2
 40
38.1000000000000014
 49
25.3999999999999986
 74
0
 49
-12.6999999999999993
 74
0
  0
LTYPE
  5
37
100
AcDbSymbolTableRecord
100
AcDbLinetypeTableRecord
  2
DASHDOT
 70
0
  3
Dash dot __ . __ . __ . __ . __ . __ . __ . __
 72
65
 73
4
 40
25.3999999999999986
 49
12.6999999999999993
 74
0
 49
-6.3499999999999996
 74
0
 49
0.0
 74
0
 49
-6.3499999999999996
 74
0
  0
LTYPE
  5
38
100
AcDbSymbolTableRecord
100
AcDbLinetypeTableRecord
  2
DASHDOT2
 70
0
  3
Dash dot (.5x) _._._._._._._._._._._._._._._.
 72
65
 73
4
 40
12.6999999999999993
 49
6.3499999999999996
 74
0
 49
-3.1749999999999998
 74
0
 49
0.0
 74
0
 49
-3.1749999999999998
 74
0
  0
LTYPE
  5
39
100
AcDbSymbolTableRecord
100
AcDbLinetypeTableRecord
  2
DASHDOTX2
 70
0
  3
Dash dot (2x) ____  .  ____  .  ____  .  ___
 72
65
 73
4
 40
50.7999999999999972
 49
25.3999999999999986
 74
0
 49
-12.6999999999999993
 74
0
 49
0.0
 74
0
 49
-12.6999999999999993
 74
0
  0
LTYPE
  5
3A
100
AcDbSymbolTableRecord
100
AcDbLinetypeTableRecord
  2
DIVIDE
 70
0
  3
Divide ____ . . ____ . . ____ . . ____ . . ____
 72
65
 73
6
 40
31.75
 49
12.6999999999999993
 74
0
 49
-6.3499999999999996
 74
0
 49
0.0
 74
0
 49
-6.3499999999999996
 74
0
 49
0.0
 74
0
 49
-6.3499999999999996
 74
0
  0
LTYPE
  5
3B
100
AcDbSymbolTableRecord
100
AcDbLinetypeTableRecord
  2
DIVIDE2
 70
0
  3
Divide (.5x) __..__..__..__..__..__..__..__.._
 72
65
 73
6
 40
15.875
 49
6.3499999999999996
 74
0
 49
-3.1749999999999998
 74
0
 49
0.0
 74
0
 49
-3.1749999999999998
 74
0
 49
0.0
 74
0
 49
-3.1749999999999998
 74
0
  0
LTYPE
  5
3C
100
AcDbSymbolTableRecord
100
AcDbLinetypeTableRecord
  2
DIVIDEX2
 70
0
  3
Divide (2x) ________  .  .  ________  .  .  _
 72
65
 73
6
 40
63.5
 49
25.3999999999999986
 74
0
 49
-12.6999999999999993
 74
0
 49
0.0
 74
0
 49
-12.6999999999999993
 74
0
 49
0.0
 74
0
 49
-12.6999999999999993
 74
0
  0
LTYPE
  5
3D
100
AcDbSymbolTableRecord
100
AcDbLinetypeTableRecord
  2
CENTER
 70
0
  3
Center ____ _ ____ _ ____ _ ____ _ ____ _ ____
 72
65
 73
4
 40
50.7999999999999972
 49
31.75
 74
0
 49
-6.3499999999999996
 74
0
 49
6.3499999999999996
 74
0
 49
-6.3499999999999996
 74
0
  0
LTYPE
  5
3E
100
AcDbSymbolTableRecord
100
AcDbLinetypeTableRecord
  2
CENTER2
 70
0
  3
Center (.5x) ___ _ ___ _ ___ _ ___ _ ___ _ ___
 72
65
 73
4
 40
28.5749999999999993
 49
19.0500000000000007
 74
0
 49
-3.1749999999999998
 74
0
 49
3.1749999999999998
 74
0
 49
-3.1749999999999998
 74
0
  0
LTYPE
  5
3F
100
AcDbSymbolTableRecord
100
AcDbLinetypeTableRecord
  2
CENTERX2
 70
0
  3
Center (2x) ________  __  ________  __  _____
 72
65
 73
4
 40
101.5999999999999943
 49
63.5
 74
0
 49
-12.6999999999999993
 74
0
 49
12.6999999999999993
 74
0
 49
-12.6999999999999993
 74
0
  0
LTYPE
  5
40
100
AcDbSymbolTableRecord
100
AcDbLinetypeTableRecord
  2
BORDER
 70
0
  3
Border __ __ . __ __ . __ __ . __ __ . __ __ .
 72
65
 73
6
 40
44.4500000000000028
 49
12.6999999999999993
 74
0
 49
-6.3499999999999996
 74
0
 49
12.6999999999999993
 74
0
 49
-6.3499999999999996
 74
0
 49
0.0
 74
0
 49
-6.3499999999999996
 74
0
  0
LTYPE
  5
41
100
AcDbSymbolTableRecord
100
AcDbLinetypeTableRecord
  2
BORDER2
 70
0
  3
Border (.5x) __.__.__.__.__.__.__.__.__.__.__.
 72
65
 73
6
 40
22.2250000000000014
 49
6.3499999999999996
 74
0
 49
-3.1749999999999998
 74
0
 49
6.3499999999999996
 74
0
 49
-3.1749999999999998
 74
0
 49
0.0
 74
0
 49
-3.1749999999999998
 74
0
  0
LTYPE
  5
42
100
AcDbSymbolTableRecord
100
AcDbLinetypeTableRecord
  2
BORDERX2
 70
0
  3
Border (2x) ____  ____  .  ____  ____  .  ___
 72
65
 73
6
 40
88.9000000000000057
 49
25.3999999999999986
 74
0
 49
-12.6999999999999993
 74
0
 49
25.3999999999999986
 74
0
 49
-12.6999999999999993
 74
0
 49
0.0
 74
0
 49
-12.6999999999999993
 74
0
  0
ENDTAB
  0
TABLE
  2
LAYER
  5
2
100
AcDbSymbolTable
 70
5
  0
LAYER
  5
10
100
AcDbSymbolTableRecord
100
AcDbLayerTableRecord
  2
0
 70
0
 62
7
  6
CONTINUOUS
370
0
390
F
  0
LAYER
  5
43
100
AcDbSymbolTableRecord
100
AcDbLayerTableRecord
  2
WINDOW
 70
0
 62
1
  6
CONTINUOUS
370
-3
390
F
  0
LAYER
  5
44
100
AcDbSymbolTableRecord
100
AcDbLayerTableRecord
  2
DOOR
 70
0
 62
2
  6
CONTINUOUS
370
-3
390
F
  0
LAYER
  5
45
100
AcDbSymbolTableRecord
100
AcDbLayerTableRecord
  2
WALL
 70
0
 62
7
  6
CONTINUOUS
370
-3
390
F
  0
LAYER
  5
46
100
AcDbSymbolTableRecord
100
AcDbLayerTableRecord
  2
Roofbeams
 70
0
 62
7
  6
CONTINUOUS
370
0
390
F
  0
ENDTAB
  0
TABLE
  2
STYLE
  5
3
100
AcDbSymbolTable
 70
1
  0
STYLE
  5
11
100
AcDbSymbolTableRecord
100
AcDbTextStyleTableRecord
  2
Standard
 70
0
 40
0.0
 41
0.75
 50
0.0
 71
0
 42
2.5
  3
txt
  4

  0
ENDTAB
  0
TABLE
  2
VIEW
  5
6
100
AcDbSymbolTable
 70
0
  0
ENDTAB
  0
TABLE
  2
UCS
  5
7
100
AcDbSymbolTable
 70
0
  0
ENDTAB
  0
TABLE
  2
APPID
  5
9
100
AcDbSymbolTable
 70
1
  0
APPID
  5
12
100
AcDbSymbolTableRecord
100
AcDbRegAppTableRecord
  2
ACAD
 70
0
  0
ENDTAB
  0
TABLE
  2
DIMSTYLE
  5
A
100
AcDbSymbolTable
 70
1
100
AcDbDimStyleTable
 71
0
  0
DIMSTYLE
105
27
100
AcDbSymbolTableRecord
100
AcDbDimStyleTableRecord
  2
Standard
 41
2.5
 42
0.625
 43
3.75
 44
1.25
 70
0
 73
0
 74
0
 77
1
 78
8
140
2.5
141
2.5
143
0.03937007874016
147
0.625
171
3
172
1
271
2
272
2
274
3
278
44
283
0
284
8
340
11
  0
ENDTAB
  0
TABLE
  2
BLOCK_RECORD
  5
1
100
AcDbSymbolTable
 70
1
  0
BLOCK_RECORD
  5
1F
100
AcDbSymbolTableRecord
100
AcDbBlockTableRecord
  2
*Model_Space
340
22
  0
BLOCK_RECORD
  5
1B
100
AcDbSymbolTableRecord
100
AcDbBlockTableRecord
  2
*Paper_Space
340
1E
  0
BLOCK_RECORD
  5
23
100
AcDbSymbolTableRecord
100
AcDbBlockTableRecord
  2
*Paper_Space0
340
26
  0
ENDTAB
  0
ENDSEC
  0
SECTION
  2
BLOCKS
  0
BLOCK
  5
20
100
AcDbEntity
  8
0
100
AcDbBlockBegin
  2
*Model_Space
 70
0
 10
0.0
 20
0.0
 30
0.0
  3
*Model_Space
  1

  0
ENDBLK
  5
21
100
AcDbEntity
  8
0
100
AcDbBlockEnd
  0
BLOCK
  5
1C
100
AcDbEntity
 67
1
  8
0
100
AcDbBlockBegin
  2
*Paper_Space
 70
0
 10
0.0
 20
0.0
 30
0.0
  3
*Paper_Space
  1

  0
ENDBLK
  5
1D
100
AcDbEntity
 67
1
  8
0
100
AcDbBlockEnd
  0
BLOCK
  5
24
100
AcDbEntity
  8
0
100
AcDbBlockBegin
  2
*Paper_Space0
 70
0
 10
0.0
 20
0.0
 30
0.0
  3
*Paper_Space0
  1

  0
ENDBLK
  5
25
100
AcDbEntity
  8
0
100
AcDbBlockEnd
  0
ENDSEC
  0
SECTION
  2
ENTITIES
  0
LWPOLYLINE
  5
47
  8
WINDOW
 62
1
370
-1
  6
CONTINUOUS
100
AcDbEntity
100
AcDbPolyline
 90
4
 70
1
 10
2675.5703638233262609
 20
4851.3207801810422097
 10
2875.5703638233262609
 20
4851.3207801812168327
 10
2875.5703638212307851
 20
5051.3207801811586251
 10
2675.5703638223949383
 20
5051.3207801808675868
  0
LINE
  5
48
100
AcDbEntity
100
AcDbLine
  8
WINDOW
 62
1
370
-1
  6
CONTINUOUS
 10
2651.4052456172667007
 20
4916.2274018870157306
 30
0.0
 11
23.6854850193503808
 21
4194.4031498150507105
 31
0.0
  0
LINE
  5
49
100
AcDbEntity
100
AcDbLine
  8
WINDOW
 62
1
370
-1
  6
CONTINUOUS
 10
2675.5703638223949383
 20
5026.5697348567264271
 30
0.0
 11
-2.7405630666744401
 21
4290.818819388114207
 31
0.0
  0
LWPOLYLINE
  5
4A
  8
WINDOW
 62
1
370
-1
  6
CONTINUOUS
100
AcDbEntity
100
AcDbPolyline
 90
4
 70
1
 10
-50.9621010906976153
 20
4277.6020394990409841
 10
-24.5285413127840002
 20
4181.1589634517513332
 10
23.6929967112391751
 20
4194.3757433408245561
 10
-2.7405630666744401
 20
4290.818819388114207
  0
LWPOLYLINE
  5
4B
  8
WINDOW
 62
1
370
-1
  6
CONTINUOUS
100
AcDbEntity
100
AcDbPolyline
 90
4
 70
1
 10
599.9802562913409929
 20
4456.4243901955269394
 10
626.4138160701859306
 20
4359.9813141482372885
 10
674.6353540932777832
 20
4373.1980940372523037
 10
648.2017943153641681
 20
4469.6411700846583699
  0
LWPOLYLINE
  5
4C
  8
WINDOW
 62
1
370
-1
  6
CONTINUOUS
100
AcDbEntity
100
AcDbPolyline
 90
4
 70
1
 10
1274.9773994842562388
 20
4641.8397527780689416
 10
1301.4109592633340071
 20
4545.396676730721083
 10
1349.6324972861930291
 20
4558.6134566197360982
 10
1323.198937508279414
 20
4655.0565326671421644
  0
LWPOLYLINE
  5
4D
  8
WINDOW
 62
1
370
-1
  6
CONTINUOUS
100
AcDbEntity
100
AcDbPolyline
 90
4
 70
1
 10
1949.9745426473691623
 20
4827.2551153520544176
 10
1976.4081024243514548
 20
4730.8120393046483514
 10
2024.6296404483746301
 20
4744.0288191937215743
 10
1998.1960806713923375
 20
4840.4718952410694328
  0
LINE
  5
4E
100
AcDbEntity
100
AcDbLine
  8
WINDOW
 62
1
370
-1
  6
CONTINUOUS
 10
2624.9716858402844082
 20
5012.6704779344217968
 30
0.0
 11
2651.4052456172667007
 21
4916.2274018870157306
 31
0.0
  0
LINE
  5
4F
100
AcDbEntity
100
AcDbLine
  8
WINDOW
 62
1
370
-1
  6
CONTINUOUS
 10
2651.4052456172667007
 20
4916.2274018870157306
 30
0.0
 11
2675.5703638223949383
 21
4922.8506881071443786
 31
0.0
  0
LINE
  5
50
100
AcDbEntity
100
AcDbLine
  8
WINDOW
 62
1
370
-1
  6
CONTINUOUS
 10
10.4762168223987828
 20
4242.597281364556693
 30
0.0
 11
613.1970361801813851
 21
4408.2028521718530101
 31
0.0
  0
LINE
  5
51
100
AcDbEntity
100
AcDbLine
  8
WINDOW
 62
1
370
-1
  6
CONTINUOUS
 10
661.4185742042045604
 20
4421.419632060926233
 30
0.0
 11
1288.1941793733294617
 21
4593.6182147543368046
 31
0.0
  0
LINE
  5
52
100
AcDbEntity
100
AcDbLine
  8
WINDOW
 62
1
370
-1
  6
CONTINUOUS
 10
1336.4157173973526369
 20
4606.8349946434682352
 30
0.0
 11
1963.1913225362095545
 21
4779.0335773283222807
 31
0.0
  0
LINE
  5
53
100
AcDbEntity
100
AcDbLine
  8
WINDOW
 62
1
370
-1
  6
CONTINUOUS
 10
2011.4128605593014072
 20
4792.2503572174537112
 30
0.0
 11
2638.1884657293576311
 21
4964.4489399106314522
 31
0.0
  0
LINE
  5
54
100
AcDbEntity
100
AcDbLine
  8
WINDOW
 62
1
370
-1
  6
CONTINUOUS
 10
3312.0498493772483926
 20
4539.3804590732397628
 30
0.0
 11
2875.5703638233262609
 21
4851.3207801812168327
 31
0.0
  0
LINE
  5
55
100
AcDbEntity
100
AcDbLine
  8
WINDOW
 62
1
370
-1
  6
CONTINUOUS
 10
3329.5153465652856539
 20
4649.8112356171550346
 30
0.0
 11
2875.5703638223949383
 21
4974.2336847091282834
 31
0.0
  0
LWPOLYLINE
  5
56
  8
WINDOW
 62
1
370
-1
  6
CONTINUOUS
100
AcDbEntity
100
AcDbPolyline
 90
4
 70
1
 10
3329.5153465652856539
 20
4649.8112356171550346
 10
3271.3706381982210587
 20
4568.4528132574705523
 10
3312.0498493781797151
 20
4539.3804590736472164
 10
3370.1945577452443104
 20
4620.7388814338555676
  0
LINE
  5
57
100
AcDbEntity
100
AcDbLine
  8
WINDOW
 62
1
370
-1
  6
CONTINUOUS
 10
3300.442992381287695
 20
4609.1320244373710011
 30
0.0
 11
2904.6427180073242198
 21
4891.9999913616411504
 31
0.0
  0
LINE
  5
58
100
AcDbEntity
100
AcDbLine
  8
WINDOW
 62
1
370
-1
  6
CONTINUOUS
 10
2875.5703638233262609
 20
4851.3207801812168327
 30
0.0
 11
2933.7150721903908561
 21
4932.6792025414251839
 31
0.0
  0
LINE
  5
59
100
AcDbEntity
100
AcDbLine
  8
DOOR
 62
2
370
-1
  6
CONTINUOUS
 10
5404.012268225198568
 20
2106.0965890395527822
 30
0.0
 11
4504.012268225198568
 21
2106.0965890395527822
 31
0.0
  0
LINE
  5
5A
100
AcDbEntity
100
AcDbLine
  8
DOOR
 62
2
370
-1
  6
CONTINUOUS
 10
5404.012268225198568
 20
2070.0965890396691975
 30
0.0
 11
4504.7325564562361251
 21
2070.0965890396691975
 31
0.0
  0
ARC
  5
5B
100
AcDbEntity
  8
DOOR
 62
2
370
-1
  6
CONTINUOUS
100
AcDbCircle
 10
5404.012268225198568
 20
2106.0965890395527822
 30
0.0
 40
900.0
100
AcDbArc
 50
180.0
 51
270.0
  0
LWPOLYLINE
  5
5C
  8
DOOR
 62
2
370
-1
  6
CONTINUOUS
100
AcDbEntity
100
AcDbPolyline
 90
4
 70
1
 10
5339.012268225198568
 20
1156.0965890396691975
 10
5469.012268225198568
 20
1156.0965890396691975
 10
5469.012268225198568
 20
1206.0965890396691975
 10
5339.012268225198568
 20
1206.0965890396691975
  0
LWPOLYLINE
  5
5D
  8
DOOR
 62
2
370
-1
  6
CONTINUOUS
100
AcDbEntity
100
AcDbPolyline
 90
4
 70
1
 10
5339.012268225198568
 20
2106.0965890395527822
 10
5469.012268225198568
 20
2106.0965890395527822
 10
5469.012268225198568
 20
2156.0965890395527822
 10
5339.012268225198568
 20
2156.0965890395527822
  0
LINE
  5
5E
100
AcDbEntity
100
AcDbLine
  8
DOOR
 62
2
370
-1
  6
CONTINUOUS
 10
5404.012268225198568
 20
2070.0965890396691975
 30
0.0
 11
5404.012268225198568
 21
2106.0965890395527822
 31
0.0
  0
LWPOLYLINE
  5
5F
  8
WINDOW
 62
1
370
-1
  6
CONTINUOUS
100
AcDbEntity
100
AcDbPolyline
 90
4
 70
1
 10
854.8207504202164273
 20
206.7006201558469911
 10
881.2543025382346968
 20
110.2575420092398417
 10
929.4758416113927524
 20
123.4743180682489765
 10
903.0422894933744828
 20
219.9173962150307489
  0
LWPOLYLINE
  5
60
  8
WINDOW
 62
1
370
-1
  6
CONTINUOUS
100
AcDbEntity
100
AcDbPolyline
 90
4
 70
1
 10
1848.1844553323480795
 20
478.9662069697587867
 10
1874.6180074503663491
 20
382.5231288227441837
 10
1922.839546523291574
 20
395.7399048817533185
 10
1896.4059944052733044
 20
492.1829830287679215
  0
LINE
  5
61
100
AcDbEntity
100
AcDbLine
  8
WINDOW
 62
1
370
-1
  6
CONTINUOUS
 10
1848.1844553323480795
 20
478.9662069697587867
 30
0.0
 11
903.0422894933744828
 21
219.9173962150307489
 31
0.0
  0
LINE
  5
62
100
AcDbEntity
100
AcDbLine
  8
WINDOW
 62
1
370
-1
  6
CONTINUOUS
 10
916.2590655523836176
 20
171.6958571414652397
 30
0.0
 11
1861.4012313913572143
 21
430.7446678961350699
 31
0.0
  0
ARC
  5
63
100
AcDbEntity
  8
WALL
 62
7
370
-1
  6
CONTINUOUS
100
AcDbCircle
 10
2918.4435628403462033
 20
4808.4475811645461363
 30
0.0
 40
315.5432560451121162
100
AcDbArc
 50
129.6731698597625098
 51
140.3268301405580871
  0
ARC
  5
64
100
AcDbEntity
  8
WALL
 62
7
370
-1
  6
CONTINUOUS
100
AcDbCircle
 10
2918.4435628403462033
 20
4808.4475811645461363
 30
0.0
 40
285.5432560451237123
100
AcDbArc
 50
121.7267868901972037
 51
148.2732131101691948
  0
ARC
  5
65
100
AcDbEntity
  8
WALL
 62
7
370
-1
  6
CONTINUOUS
100
AcDbCircle
 10
2918.4435628403462033
 20
4808.4475811645461363
 30
0.0
 40
263.043256045132523
100
AcDbArc
 50
112.5835698776866991
 51
157.416430122760886
  0
ARC
  5
66
100
AcDbEntity
  8
WALL
 62
7
370
-1
  6
CONTINUOUS
100
AcDbCircle
 10
2918.4435628403462033
 20
4808.4475811645461363
 30
0.0
 40
240.5432560451411916
100
AcDbArc
 50
100.2669635647165052
 51
169.7330364352833953
  0
ARC
  5
67
100
AcDbEntity
  8
WALL
 62
7
370
-1
  6
CONTINUOUS
100
AcDbCircle
 10
2918.4435628403462033
 20
4808.4475811645461363
 30
0.0
 40
218.0432560451498887
100
AcDbArc
 50
101.3397861604456978
 51
168.6602138336700989
  0
ARC
  5
68
100
AcDbEntity
  8
WALL
 62
7
370
-1
  6
CONTINUOUS
100
AcDbCircle
 10
2918.4435628403462033
 20
4808.4475811645461363
 30
0.0
 40
203.0432560451556867
100
AcDbArc
 50
102.1899313795191944
 51
167.8100686186292876
  0
ARC
  5
69
100
AcDbEntity
  8
WALL
 62
7
370
-1
  6
CONTINUOUS
100
AcDbCircle
 10
2918.4435628403462033
 20
4808.4475811645461363
 30
0.0
 40
188.0432560451615132
100
AcDbArc
 50
103.179144336542393
 51
166.8208556626971131
  0
ARC
  5
6A
100
AcDbEntity
  8
WALL
 62
7
370
-1
  6
CONTINUOUS
100
AcDbCircle
 10
2918.4435628403462033
 20
4808.4475811645461363
 30
0.0
 40
173.0432560451673112
100
AcDbArc
 50
104.3450006651394943
 51
165.6549993283983042
  0
ARC
  5
6B
100
AcDbEntity
  8
WALL
 62
7
370
-1
  6
CONTINUOUS
100
AcDbCircle
 10
2918.4435628403462033
 20
4808.4475811645461363
 30
0.0
 40
158.0432560451731945
100
AcDbArc
 50
105.7401564220214993
 51
164.2598435843983964
  0
ARC
  5
6C
100
AcDbEntity
  8
WALL
 62
7
370
-1
  6
CONTINUOUS
100
AcDbCircle
 10
2918.4435628403462033
 20
4808.4475811645461363
 30
0.0
 40
143.0432560451789925
100
AcDbArc
 50
107.4409016220709958
 51
162.5590983705658914
  0
ARC
  5
6D
100
AcDbEntity
  8
WALL
 62
7
370
-1
  6
CONTINUOUS
100
AcDbCircle
 10
2918.4435628403462033
 20
4808.4475811645461363
 30
0.0
 40
135.5432560451818915
100
AcDbArc
 50
108.4396978445628008
 51
161.56030216387461
  0
ARC
  5
6E
100
AcDbEntity
  8
WALL
 62
7
370
-1
  6
CONTINUOUS
100
AcDbCircle
 10
2918.4435628403462033
 20
4808.4475811645461363
 30
0.0
 40
128.0432560451847905
100
AcDbArc
 50
109.562426523838198
 51
160.4375734781876019
  0
ARC
  5
6F
100
AcDbEntity
  8
WALL
 62
7
370
-1
  6
CONTINUOUS
100
AcDbCircle
 10
2918.4435628403462033
 20
4808.4475811645461363
 30
0.0
 40
120.5432560451877038
100
AcDbArc
 50
110.8342986801247037
 51
159.1657013241784
  0
ARC
  5
70
100
AcDbEntity
  8
WALL
 62
7
370
-1
  6
CONTINUOUS
100
AcDbCircle
 10
2918.4435628403462033
 20
4808.4475811645461363
 30
0.0
 40
113.0432560451906028
100
AcDbArc
 50
112.2880795198750974
 51
157.7119204801248884
  0
ARC
  5
71
100
AcDbEntity
  8
WALL
 62
7
370
-1
  6
CONTINUOUS
100
AcDbCircle
 10
2918.4435628403462033
 20
4808.4475811645461363
 30
0.0
 40
105.5432560451935018
100
AcDbArc
 50
113.9672552107765995
 51
156.0327447922707904
  0
ARC
  5
72
100
AcDbEntity
  8
WALL
 62
7
370
-1
  6
CONTINUOUS
100
AcDbCircle
 10
2918.4435628403462033
 20
4808.4475811645461363
 30
0.0
 40
98.0432560451964719
100
AcDbArc
 50
115.9310112529523025
 51
154.0689887515052874
  0
ARC
  5
73
100
AcDbEntity
  8
WALL
 62
7
370
-1
  6
CONTINUOUS
100
AcDbCircle
 10
2918.4435628403462033
 20
4808.4475811645461363
 30
0.0
 40
90.5432560451993567
100
AcDbArc
 50
118.2624249696630017
 51
151.7375750319160943
  0
ARC
  5
74
100
AcDbEntity
  8
WALL
 62
7
370
-1
  6
CONTINUOUS
100
AcDbCircle
 10
2918.4435628403462033
 20
4808.4475811645461363
 30
0.0
 40
83.0432560452022841
100
AcDbArc
 50
121.0827497343177868
 51
148.9172502656820996
  0
LINE
  5
75
100
AcDbEntity
100
AcDbLine
  8
Roofbeams
 62
7
370
-1
  6
DASHDOT
 10
2775.5703796129764669
 20
579.143075322448567
 30
0.0
 11
2775.5703796129764669
 21
5001.3430753224456566
 31
0.0
  0
LINE
  5
76
100
AcDbEntity
100
AcDbLine
  8
Roofbeams
 62
256
370
-1
  6
DASHED
 10
2865.5703796129764669
 20
3289.8948676692962181
 30
0.0
 11
5252.512268225198568
 21
3289.8948676692962181
 31
0.0
  0
LINE
  5
77
100
AcDbEntity
100
AcDbLine
  8
Roofbeams
 62
256
370
-1
  6
DASHED
 10
2865.5703796129764669
 20
3214.8948676692962181
 30
0.0
 11
5252.512268225198568
 21
3214.8948676692962181
 31
0.0
  0
LINE
  5
78
100
AcDbEntity
100
AcDbLine
  8
Roofbeams
 62
256
370
-1
  6
DASHED
 10
2865.5703796129764669
 20
2889.7922788330397452
 30
0.0
 11
5252.512268225198568
 21
2889.7922788330397452
 31
0.0
  0
LINE
  5
79
100
AcDbEntity
100
AcDbLine
  8
Roofbeams
 62
256
370
-1
  6
DASHED
 10
2865.5703796129764669
 20
2814.7922788330397452
 30
0.0
 11
5252.512268225198568
 21
2814.7922788330397452
 31
0.0
  0
LINE
  5
7A
100
AcDbEntity
100
AcDbLine
  8
Roofbeams
 62
256
370
-1
  6
DASHED
 10
2865.5703796129764669
 20
2489.6896899967832724
 30
0.0
 11
5252.512268225198568
 21
2489.6896899967832724
 31
0.0
  0
LINE
  5
7B
100
AcDbEntity
100
AcDbLine
  8
Roofbeams
 62
256
370
-1
  6
DASHED
 10
2865.5703796129764669
 20
2414.6896899967832724
 30
0.0
 11
5252.512268225198568
 21
2414.6896899967832724
 31
0.0
  0
LINE
  5
7C
100
AcDbEntity
100
AcDbLine
  8
Roofbeams
 62
256
370
-1
  6
DASHED
 10
2865.5703796129764669
 20
2089.5871011605267995
 30
0.0
 11
5252.512268225198568
 21
2089.5871011605267995
 31
0.0
  0
LINE
  5
7D
100
AcDbEntity
100
AcDbLine
  8
Roofbeams
 62
256
370
-1
  6
DASHED
 10
2865.5703796129764669
 20
2014.5871011605267995
 30
0.0
 11
5252.512268225198568
 21
2014.5871011605267995
 31
0.0
  0
LINE
  5
7E
100
AcDbEntity
100
AcDbLine
  8
Roofbeams
 62
256
370
-1
  6
DASHED
 10
2865.5703796129764669
 20
1689.4845123242703266
 30
0.0
 11
5252.512268225198568
 21
1689.4845123242703266
 31
0.0
  0
LINE
  5
7F
100
AcDbEntity
100
AcDbLine
  8
Roofbeams
 62
256
370
-1
  6
DASHED
 10
2865.5703796129764669
 20
1614.4845123242703266
 30
0.0
 11
5252.512268225198568
 21
1614.4845123242703266
 31
0.0
  0
LINE
  5
80
100
AcDbEntity
100
AcDbLine
  8
Roofbeams
 62
256
370
-1
  6
DASHED
 10
2865.5703796129764669
 20
1289.3819234880138538
 30
0.0
 11
5252.512268225198568
 21
1289.3819234880138538
 31
0.0
  0
LINE
  5
81
100
AcDbEntity
100
AcDbLine
  8
Roofbeams
 62
256
370
-1
  6
DASHED
 10
2865.5703796129764669
 20
1214.3819234880138538
 30
0.0
 11
5252.512268225198568
 21
1214.3819234880138538
 31
0.0
  0
LINE
  5
82
100
AcDbEntity
100
AcDbLine
  8
Roofbeams
 62
256
370
-1
  6
DASHED
 10
2865.5703796129764669
 20
889.2793346517573809
 30
0.0
 11
5252.512268225198568
 21
889.2793346517573809
 31
0.0
  0
LINE
  5
83
100
AcDbEntity
100
AcDbLine
  8
Roofbeams
 62
256
370
-1
  6
DASHED
 10
2865.5703796129764669
 20
814.2793346517573809
 30
0.0
 11
5252.512268225198568
 21
814.2793346517573809
 31
0.0
  0
LINE
  5
84
100
AcDbEntity
100
AcDbLine
  8
Roofbeams
 62
256
370
-1
  6
DASHED
 10
2865.5703796129764669
 20
3614.9974565055526909
 30
0.0
 11
4777.4685459026713943
 21
3614.9974565055526909
 31
0.0
  0
LINE
  5
85
100
AcDbEntity
100
AcDbLine
  8
Roofbeams
 62
256
370
-1
  6
DASHED
 10
2865.5703796129764669
 20
3689.9974565055526909
 30
0.0
 11
4672.5255192997083213
 21
3689.9974565055526909
 31
0.0
  0
LINE
  5
86
100
AcDbEntity
100
AcDbLine
  8
Roofbeams
 62
256
370
-1
  6
DASHED
 10
2865.5703796129764669
 20
4015.1000453418091638
 30
0.0
 11
4217.6288575805683649
 21
4015.1000453418091638
 31
0.0
  0
LINE
  5
87
100
AcDbEntity
100
AcDbLine
  8
Roofbeams
 62
256
370
-1
  6
DASHED
 10
2865.5703796129764669
 20
4090.1000453418091638
 30
0.0
 11
4112.685830977603473
 21
4090.1000453418091638
 31
0.0
  0
LINE
  5
88
100
AcDbEntity
100
AcDbLine
  8
Roofbeams
 62
256
370
-1
  6
DASHED
 10
2865.5703796129764669
 20
4415.2026341780656367
 30
0.0
 11
3657.7891692584635166
 21
4415.2026341780656367
 31
0.0
  0
LINE
  5
89
100
AcDbEntity
100
AcDbLine
  8
Roofbeams
 62
256
370
-1
  6
DASHED
 10
2865.5703796129764669
 20
4490.2026341780656367
 30
0.0
 11
3552.8461426555004437
 21
4490.2026341780656367
 31
0.0
  0
LINE
  5
8A
100
AcDbEntity
100
AcDbLine
  8
Roofbeams
 62
256
370
-1
  6
DASHED
 10
2865.5703796129764669
 20
4490.2026341780656367
 30
0.0
 11
2865.5703796129764669
 21
4415.2026341780656367
 31
0.0
  0
LINE
  5
8B
100
AcDbEntity
100
AcDbLine
  8
Roofbeams
 62
256
370
-1
  6
DASHED
 10
2865.5703796129764669
 20
4974.2336847091282834
 30
0.0
 11
5252.512268225198568
 21
3275.496297376761504
 31
0.0
  0
LINE
  5
8C
100
AcDbEntity
100
AcDbLine
  8
Roofbeams
 62
256
370
-1
  6
DASHED
 10
5252.512268225198568
 20
3275.496297376761504
 30
0.0
 11
5252.512268225198568
 21
3152.5833928498395835
 31
0.0
  0
LINE
  5
8D
100
AcDbEntity
100
AcDbLine
  8
Roofbeams
 62
256
370
-1
  6
DASHED
 10
5252.512268225198568
 20
3152.5833928498395835
 30
0.0
 11
2875.5703638233262609
 21
4851.3207801812168327
 31
0.0
  0
LINE
  5
8E
100
AcDbEntity
100
AcDbLine
  8
WALL
 62
256
370
-1
  6
ByLayer
 10
33.1607217674190906
 20
3989.5944367029078421
 30
0.0
 11
-46.1399472879293171
 21
4278.9237174880472594
 31
0.0
  0
LINE
  5
8F
100
AcDbEntity
100
AcDbLine
  8
WALL
 62
256
370
-1
  6
ByLayer
 10
2780.5337609321468335
 20
5188.128607064478274
 30
0.0
 11
-84.8106413317254919
 21
4401.0454665991637739
 31
0.0
  0
LINE
  5
90
100
AcDbEntity
100
AcDbLine
  8
DOOR
 62
256
370
-1
  6
ByLayer
 10
5208.9038406291638239
 20
4245.7174189738798304
 30
0.0
 11
5238.8786583771125152
 21
4225.7449029851923115
 31
0.0
  0
LWPOLYLINE
  5
91
  8
DOOR
 62
2
370
-1
  6
CONTINUOUS
100
AcDbEntity
100
AcDbPolyline
 90
4
 70
1
 10
3370.1945577452443104
 20
4620.7388814338555676
 10
3312.0498493781797151
 20
4539.3804590739382547
 10
3352.7290605583712022
 20
4510.3081048903477495
 10
3410.8737689252029668
 20
4591.6665272502650623
  0
LINE
  5
92
100
AcDbEntity
100
AcDbLine
  8
DOOR
 62
2
370
-1
  6
CONTINUOUS
 10
3411.0904467913806002
 20
4530.0552210581445252
 30
0.0
 11
3381.8014147412050079
 21
4550.9873160703646136
 31
0.0
  0
LINE
  5
93
100
AcDbEntity
100
AcDbLine
  8
DOOR
 62
256
370
-1
  6
ByLayer
 10
3927.9862338800467114
 20
3853.3612390467969817
 30
0.0
 11
4162.3094086014662025
 21
4181.2356811581557849
 31
0.0
  0
LWPOLYLINE
  5
94
  8
DOOR
 62
2
370
-1
  6
CONTINUOUS
100
AcDbEntity
100
AcDbPolyline
 90
4
 70
1
 10
4793.9669490436772321
 20
3603.2064850078240852
 10
4735.8222406766126369
 20
3521.8480626482560183
 10
4776.5014518565712933
 20
3492.7757084644326824
 10
4834.6461602236358885
 20
3574.1341308241171646
  0
LINE
  5
95
100
AcDbEntity
100
AcDbLine
  8
DOOR
 62
2
370
-1
  6
CONTINUOUS
 10
4764.8945948596792732
 20
3562.5272738279236364
 30
0.0
 11
4735.6055628106678341
 21
3583.4593688403183478
 31
0.0
  0
LINE
  5
96
100
AcDbEntity
100
AcDbLine
  8
DOOR
 62
2
370
-1
  6
CONTINUOUS
 10
4894.53520984214083
 20
3657.9333058554475429
 30
0.0
 11
3500.051850592253686
 21
4654.53360726871324
 31
0.0
  0
ARC
  5
97
100
AcDbEntity
  8
DOOR
 62
256
370
-1
  6
ByLayer
100
AcDbCircle
 10
3411.0904467913806002
 20
4530.0552210581445252
 30
0.0
 40
814.0006048879115497
100
AcDbArc
 50
323.5560802780969425
 51
54.447612710656756
  0
ARC
  5
98
100
AcDbEntity
  8
DOOR
 62
256
370
-1
  6
ByLayer
100
AcDbCircle
 10
4735.6055628081521718
 20
3583.4593688381719403
 30
0.0
 40
814.0006048879115497
100
AcDbArc
 50
54.4476127105801027
 51
145.339145143139973
  0
LINE
  5
99
100
AcDbEntity
100
AcDbLine
  8
DOOR
 62
2
370
-1
  6
CONTINUOUS
 10
3381.8014147412050079
 20
4550.9873160703646136
 30
0.0
 11
3855.7854782593367418
 21
5214.2049452300634584
 31
0.0
  0
LINE
  5
9A
100
AcDbEntity
100
AcDbLine
  8
DOOR
 62
2
370
-1
  6
CONTINUOUS
 10
3411.0904467913806002
 20
4530.0552210581445252
 30
0.0
 11
3884.3887246115064045
 21
5192.3132711944854236
 31
0.0
  0
LINE
  5
9B
100
AcDbEntity
100
AcDbLine
  8
DOOR
 62
2
370
-1
  6
CONTINUOUS
 10
4735.6055628106678341
 20
3583.4593688403183478
 30
0.0
 11
5208.9038406291638239
 21
4245.7174189738798304
 31
0.0
  0
LINE
  5
9C
100
AcDbEntity
100
AcDbLine
  8
DOOR
 62
2
370
-1
  6
CONTINUOUS
 10
4764.8945948596792732
 20
3562.5272738279236364
 30
0.0
 11
5238.8786583771125152
 21
4225.7449029851923115
 31
0.0
  0
LINE
  5
9D
100
AcDbEntity
100
AcDbLine
  8
DOOR
 62
256
370
-1
  6
ByLayer
 10
3855.7854782593367418
 20
5214.2049452300634584
 30
0.0
 11
3884.3887246115064045
 21
5192.3132711944854236
 31
0.0
  0
LINE
  5
9E
100
AcDbEntity
100
AcDbLine
  8
DOOR
 62
256
370
-1
  6
ByLayer
 10
4735.6055628106678341
 20
3583.4593688403183478
 30
0.0
 11
4735.6055628106678341
 21
3583.4593688403183478
 31
0.0
  0
LINE
  5
9F
100
AcDbEntity
100
AcDbLine
  8
WALL
 62
7
370
-1
  6
CONTINUOUS
 10
5555.512268225198568
 20
2156.0965890395527822
 30
0.0
 11
5252.512268225198568
 21
2156.0965890395527822
 31
0.0
  0
LINE
  5
A0
100
AcDbEntity
100
AcDbLine
  8
WALL
 62
7
370
-1
  6
CONTINUOUS
 10
5555.512268225198568
 20
2156.0965890395527822
 30
0.0
 11
5555.512268225198568
 21
2996.0965890395527822
 31
0.0
  0
LINE
  5
A1
100
AcDbEntity
100
AcDbLine
  8
WALL
 62
7
370
-1
  6
CONTINUOUS
 10
5252.512268225198568
 20
3402.0965890396691975
 30
0.0
 11
5467.512268225198568
 21
3402.0965890396691975
 31
0.0
  0
LINE
  5
A2
100
AcDbEntity
100
AcDbLine
  8
WALL
 62
7
370
-1
  6
CONTINUOUS
 10
5467.512268225198568
 20
3402.0965890396691975
 30
0.0
 11
5467.512268225198568
 21
3299.0965890396691975
 31
0.0
  0
LINE
  5
A3
100
AcDbEntity
100
AcDbLine
  8
WALL
 62
7
370
-1
  6
CONTINUOUS
 10
2694.7806749793253402
 20
605.7616756524148514
 30
0.0
 11
1923.2360498053039919
 21
394.2932587098403019
 31
0.0
  0
LINE
  5
A4
100
AcDbEntity
100
AcDbLine
  8
WALL
 62
7
370
-1
  6
CONTINUOUS
 10
1923.2360498053039919
 20
394.2932587098403019
 30
0.0
 11
1896.0094911241922091
 21
493.6296292008555611
 31
0.0
  0
LINE
  5
A5
100
AcDbEntity
100
AcDbLine
  8
WALL
 62
7
370
-1
  6
CONTINUOUS
 10
2775.5703638233262609
 20
734.7036245156268706
 30
0.0
 11
1896.0094911241922091
 21
493.6296292008555611
 31
0.0
  0
LINE
  5
A6
100
AcDbEntity
100
AcDbLine
  8
WALL
 62
7
370
-1
  6
CONTINUOUS
 10
1874.6180074503663491
 20
382.5231288227441837
 30
0.0
 11
929.4758416113927524
 21
123.4743180682489765
 31
0.0
  0
LINE
  5
A7
100
AcDbEntity
100
AcDbLine
  8
WALL
 62
7
370
-1
  6
CONTINUOUS
 10
806.2027080643474619
 20
194.9304902695657802
 30
0.0
 11
792.9859320053383271
 21
243.1520293427238357
 31
0.0
  0
LINE
  5
A8
100
AcDbEntity
100
AcDbLine
  8
WALL
 62
7
370
-1
  6
CONTINUOUS
 10
1944.2310301973502646
 20
506.8464052601557341
 30
0.0
 11
1931.0142541383411299
 21
555.067944333430205
 31
0.0
  0
LINE
  5
A9
100
AcDbEntity
100
AcDbLine
  8
WALL
 62
7
370
-1
  6
CONTINUOUS
 10
1931.0142541383411299
 20
555.067944333430205
 30
0.0
 11
792.9859320053383271
 21
243.1520293427238357
 31
0.0
  0
LINE
  5
AA
100
AcDbEntity
100
AcDbLine
  8
WALL
 62
7
370
-1
  6
CONTINUOUS
 10
18.8504648162070225
 20
-19.392808017662901
 30
0.0
 11
-1108.5420596885942359
 21
4093.9100450464247842
 31
0.0
  0
LINE
  5
AB
100
AcDbEntity
100
AcDbLine
  8
WALL
 62
7
370
-1
  6
CONTINUOUS
 10
18.8504648162070225
 20
-19.3928080175464856
 30
0.0
 11
-29.3928251557499607
 21
-32.5302257050570915
 31
0.0
  0
LINE
  5
AC
100
AcDbEntity
100
AcDbLine
  8
WALL
 62
7
370
-1
  6
CONTINUOUS
 10
-78.188664096638604
 20
4376.9384257708516088
 30
0.0
 11
-1108.5420596885942359
 21
4093.9100450464247842
 31
0.0
  0
LINE
  5
AD
100
AcDbEntity
100
AcDbLine
  8
WALL
 62
7
370
-1
  6
CONTINUOUS
 10
4817.1970499372127961
 20
3463.7262834935172577
 30
0.0
 11
4834.6461602242216031
 21
3574.1341308244227548
 31
0.0
  0
LINE
  5
AE
100
AcDbEntity
100
AcDbLine
  8
WALL
 62
7
370
-1
  6
CONTINUOUS
 10
4776.5178387572541396
 20
3492.7986376768167247
 30
0.0
 11
4875.3417583042773913
 21
3545.0847058534345706
 31
0.0
  0
LINE
  5
AF
100
AcDbEntity
100
AcDbLine
  8
WALL
 62
7
370
-1
  6
CONTINUOUS
 10
5252.512268225198568
 20
1156.0965890396691975
 30
0.0
 11
5252.512268225198568
 21
2156.0965890395527822
 31
0.0
  0
LINE
  5
B0
100
AcDbEntity
100
AcDbLine
  8
WALL
 62
7
370
-1
  6
CONTINUOUS
 10
118.2316421594023268
 20
7.6702724184215185
 30
0.0
 11
-981.994472692718773
 21
4021.8562093169384752
 31
0.0
  0
LINE
  5
B1
100
AcDbEntity
100
AcDbLine
  8
WALL
 62
7
370
-1
  6
CONTINUOUS
 10
18.8504648162070225
 20
-19.3928080175464856
 30
0.0
 11
311.2048020493257354
 21
60.2199431680564885
 31
0.0
  0
LINE
  5
B2
100
AcDbEntity
100
AcDbLine
  8
WALL
 62
7
370
-1
  6
CONTINUOUS
 10
-50.9621010906976153
 20
4277.6020394990409841
 30
0.0
 11
-981.994472692718773
 21
4021.8562093169384752
 31
0.0
  0
LWPOLYLINE
  5
B3
  8
WALL
 62
7
370
-1
  6
CONTINUOUS
100
AcDbEntity
100
AcDbPolyline
 90
4
 70
1
 10
4834.6625471243187349
 20
3574.1570600370250759
 10
4776.5178387572541396
 20
3492.7986376768167247
 10
4817.1970499372127961
 20
3463.7262834933426348
 10
4875.3417583042773913
 20
3545.0847058534345706
  0
LINE
  5
B4
100
AcDbEntity
100
AcDbLine
  8
WALL
 62
7
370
-1
  6
CONTINUOUS
 10
2787.1557381672337215
 20
5164.0215662361661089
 30
0.0
 11
-78.188664096638604
 21
4376.9384257708516088
 31
0.0
  0
LINE
  5
B5
100
AcDbEntity
100
AcDbLine
  8
WALL
 62
7
370
-1
  6
ByLayer
 10
2.0137167899447377
 20
4084.7457128725145594
 30
0.0
 11
-736.2710027946914124
 21
3881.9458486787043512
 31
0.0
  0
LINE
  5
B6
100
AcDbEntity
100
AcDbLine
  8
WALL
 62
7
370
-1
  6
CONTINUOUS
 10
28.3385678600761821
 20
3988.2727590970243909
 30
0.0
 11
-78.188664096638604
 21
4376.9384257707351935
 31
0.0
  0
LINE
  5
B7
100
AcDbEntity
100
AcDbLine
  8
WALL
 62
7
370
-1
  6
ByLayer
 10
-47.4019095946914604
 20
4071.2009487410905422
 30
0.0
 11
-47.4019095946914604
 21
4071.2009487410905422
 31
0.0
  0
LINE
  5
B8
100
AcDbEntity
100
AcDbLine
  8
WALL
 62
7
370
-1
  6
ByLayer
 10
-47.4019095946914604
 20
4071.2009487410905422
 30
0.0
 11
-47.4019095946914604
 21
4071.2009487410905422
 31
0.0
  0
LINE
  5
B9
100
AcDbEntity
100
AcDbLine
  8
WALL
 62
7
370
-1
  6
ByLayer
 10
-47.4019095946914604
 20
4071.2009487410905422
 30
0.0
 11
-47.4019095946914604
 21
4071.2009487410905422
 31
0.0
  0
LINE
  5
BA
100
AcDbEntity
100
AcDbLine
  8
WALL
 62
7
370
-1
  6
ByLayer
 10
-47.4019095946914604
 20
4071.2009487410905422
 30
0.0
 11
-47.4019095946914604
 21
4071.2009487410905422
 31
0.0
  0
LINE
  5
BB
100
AcDbEntity
100
AcDbLine
  8
WALL
 62
7
370
-1
  6
ByLayer
 10
-55.9518956355586852
 20
4068.8231046754808631
 30
0.0
 11
-108.8190082691589851
 21
4261.7092916103065363
 31
0.0
  0
LINE
  5
BC
100
AcDbEntity
100
AcDbLine
  8
WALL
 62
7
370
-1
  6
CONTINUOUS
 10
881.6508058193157922
 20
108.8108958372686175
 30
0.0
 11
854.4242471382040094
 21
208.1472663283420843
 31
0.0
  0
LINE
  5
BD
100
AcDbEntity
100
AcDbLine
  8
WALL
 62
7
370
-1
  6
CONTINUOUS
 10
881.6508058193157922
 20
108.8108958372686175
 30
0.0
 11
203.6559664472024451
 21
-77.0169755512542906
 31
0.0
  0
LINE
  5
BE
100
AcDbEntity
100
AcDbLine
  8
WALL
 62
7
370
-1
  6
CONTINUOUS
 10
854.4242471382040094
 20
208.1472663283420843
 30
0.0
 11
311.2048020493257354
 21
60.2199431680564885
 31
0.0
  0
LINE
  5
BF
100
AcDbEntity
100
AcDbLine
  8
WALL
 62
7
370
-1
  6
CONTINUOUS
 10
107.2128883001878421
 20
-103.4505276691561448
 30
0.0
 11
203.6559664472024451
 21
-77.0169755512542906
 31
0.0
  0
LINE
  5
C0
100
AcDbEntity
100
AcDbLine
  8
WALL
 62
7
370
-1
  6
CONTINUOUS
 10
5252.512268225198568
 20
3402.0965890396691975
 30
0.0
 11
4894.5352098422608833
 21
3657.9333058549163979
 31
0.0
  0
LINE
  5
C1
100
AcDbEntity
100
AcDbLine
  8
WALL
 62
7
370
-1
  6
CONTINUOUS
 10
1.9050115433074097
 20
4084.7158525644408655
 30
0.0
 11
-736.2710027946141054
 21
3881.9458486784205888
 31
0.0
  0
LINE
  5
C2
100
AcDbEntity
100
AcDbLine
  8
WALL
 62
7
370
-1
  6
CONTINUOUS
 10
5252.512268225198568
 20
3275.496297376761504
 30
0.0
 11
4834.6461602232902806
 21
3574.1341308243645472
 31
0.0
  0
LINE
  5
C3
100
AcDbEntity
100
AcDbLine
  8
WALL
 62
7
370
-1
  6
CONTINUOUS
 10
311.2048020493257354
 20
60.2199431680564885
 30
0.0
 11
-736.2710027946914124
 21
3881.9458486787043512
 31
0.0
  0
LINE
  5
C4
100
AcDbEntity
100
AcDbLine
  8
WALL
 62
7
370
-1
  6
CONTINUOUS
 10
3195.7604326418640994
 20
4376.6636143529904075
 30
0.0
 11
3430.0836073632835905
 21
4704.5380564643492107
 31
0.0
  0
LINE
  5
C5
100
AcDbEntity
100
AcDbLine
  8
WALL
 62
7
370
-1
  6
CONTINUOUS
 10
2721.0179242650701781
 20
4831.6305790923070163
 30
0.0
 11
1.9050115433074097
 21
4084.7158525643244502
 31
0.0
  0
LINE
  5
C6
100
AcDbEntity
100
AcDbLine
  8
WALL
 62
7
370
-1
  6
ByLayer
 10
2708.912236604724967
 20
4724.6011180129426066
 30
0.0
 11
-613.4092678459619492
 21
3811.9906683591252659
 31
0.0
  0
LINE
  5
C7
100
AcDbEntity
100
AcDbLine
  8
WALL
 62
7
370
-1
  6
ByLayer
 10
4660.2120351182293234
 20
3330.0588637406035559
 30
0.0
 11
4894.5352098396488145
 21
3657.9333058519623592
 31
0.0
  0
LINE
  5
C8
100
AcDbEntity
100
AcDbLine
  8
WALL
 62
7
370
-1
  6
ByLayer
 10
2721.0179242650701781
 20
4831.6305790923070163
 30
0.0
 11
3251.2350651388132974
 21
4454.2859588048086152
 31
0.0
  0
LINE
  5
C9
100
AcDbEntity
100
AcDbLine
  8
WALL
 62
7
370
-1
  6
ByLayer
 10
3195.7604326418659184
 20
4376.6636143529904075
 30
0.0
 11
2708.912236604724967
 21
4724.6011180129426066
 31
0.0
  0
LINE
  5
CA
100
AcDbEntity
100
AcDbLine
  8
WALL
 62
7
370
-1
  6
ByLayer
 10
5252.512268225198568
 20
2906.7575837957847398
 30
0.0
 11
4660.2120351212415699
 21
3330.0588637448163354
 31
0.0
  0
LINE
  5
CB
100
AcDbEntity
100
AcDbLine
  8
WALL
 62
7
370
-1
  6
CONTINUOUS
 10
3470.762818543242247
 20
4675.4657022809333284
 30
0.0
 11
3430.0836073632835905
 21
4704.5380564643492107
 31
0.0
  0
LINE
  5
CC
100
AcDbEntity
100
AcDbLine
  8
WALL
 62
7
370
-1
  6
ByLayer
 10
4717.7638204126124037
 20
3410.5876442094668164
 30
0.0
 11
5252.512268225198568
 21
3030.0181860877491999
 31
0.0
  0
LINE
  5
CD
100
AcDbEntity
100
AcDbLine
  8
WALL
 62
7
370
-1
  6
CONTINUOUS
 10
5252.512268225198568
 20
2156.0965890395527822
 30
0.0
 11
5252.512268225198568
 21
3402.0965890396691975
 31
0.0
  0
LINE
  5
CE
100
AcDbEntity
100
AcDbLine
  8
WALL
 62
7
370
-1
  6
ByLayer
 10
5357.512268225198568
 20
2156.0965890395527822
 30
0.0
 11
5357.512268225198568
 21
3194.0965890396691975
 31
0.0
  0
LINE
  5
CF
100
AcDbEntity
100
AcDbLine
  8
WALL
 62
7
370
-1
  6
ByLayer
 10
5450.512268225198568
 20
2156.0965890395527822
 30
0.0
 11
5450.512268225198568
 21
3089.0965890396691975
 31
0.0
  0
LINE
  5
D0
100
AcDbEntity
100
AcDbLine
  8
WALL
 62
7
370
-1
  6
CONTINUOUS
 10
5555.512268225198568
 20
1156.0965890396691975
 30
0.0
 11
5252.512268225198568
 21
1156.0965890396691975
 31
0.0
  0
LINE
  5
D1
100
AcDbEntity
100
AcDbLine
  8
WALL
 62
7
370
-1
  6
ByLayer
 10
407.6913819937690278
 20
86.4947785428012139
 30
0.0
 11
-613.4092678459619492
 21
3811.9906683591252659
 31
0.0
  0
LINE
  5
D2
100
AcDbEntity
100
AcDbLine
  8
Roofbeams
 62
256
370
-1
  6
ByLayer
 10
793.4636945810443649
 20
192.2289870141612482
 30
0.0
 11
-227.6369552586866121
 21
3917.7248768304853002
 31
0.0
  0
LINE
  5
D3
100
AcDbEntity
100
AcDbLine
  8
Roofbeams
 62
256
370
-1
  6
ByLayer
 10
1179.236007168319702
 20
297.9631954855285585
 30
0.0
 11
158.1353573285887251
 21
4023.4590853018526104
 31
0.0
  0
LINE
  5
D4
100
AcDbEntity
100
AcDbLine
  8
Roofbeams
 62
256
370
-1
  6
ByLayer
 10
1565.0083197555950392
 20
403.6974039568885928
 30
0.0
 11
543.9076699158640622
 21
4129.1932937732126447
 31
0.0
  0
LINE
  5
D5
100
AcDbEntity
100
AcDbLine
  8
Roofbeams
 62
256
370
-1
  6
ByLayer
 10
1950.7806323428703763
 20
509.4316124282486271
 30
0.0
 11
929.6799825031393993
 21
4234.927502244572679
 31
0.0
  0
LINE
  5
D6
100
AcDbEntity
100
AcDbLine
  8
Roofbeams
 62
256
370
-1
  6
ByLayer
 10
2336.5529449301448039
 20
615.1658208996159374
 30
0.0
 11
1315.4522950904147365
 21
4340.6617107159399893
 31
0.0
  0
LINE
  5
D7
100
AcDbEntity
100
AcDbLine
  8
Roofbeams
 62
256
370
-1
  6
ByLayer
 10
721.1313859709298413
 20
172.4038229257785133
 30
0.0
 11
-299.9692638688011357
 21
3897.8997127421025652
 31
0.0
  0
LINE
  5
D8
100
AcDbEntity
100
AcDbLine
  8
Roofbeams
 62
256
370
-1
  6
ByLayer
 10
1106.9036985582051784
 20
278.1380313971458236
 30
0.0
 11
85.8030487184742015
 21
4003.6339212134698755
 31
0.0
  0
LINE
  5
D9
100
AcDbEntity
100
AcDbLine
  8
Roofbeams
 62
256
370
-1
  6
ByLayer
 10
1492.6760111454805156
 20
383.8722398685058579
 30
0.0
 11
471.5753613057495386
 21
4109.3681296848299098
 31
0.0
  0
LINE
  5
DA
100
AcDbEntity
100
AcDbLine
  8
Roofbeams
 62
256
370
-1
  6
ByLayer
 10
1878.4483237327567622
 20
489.6064483398658922
 30
0.0
 11
857.3476738930248757
 21
4215.1023381561899441
 31
0.0
  0
LINE
  5
DB
100
AcDbEntity
100
AcDbLine
  8
Roofbeams
 62
256
370
-1
  6
ByLayer
 10
2264.2206363200311898
 20
595.3406568112332025
 30
0.0
 11
1243.1199864803002129
 21
4320.8365466275572544
 31
0.0
  0
LINE
  5
DC
100
AcDbEntity
100
AcDbLine
  8
Roofbeams
 62
256
370
-1
  6
ByLayer
 10
2649.9929489073074365
 20
701.0748652825932368
 30
0.0
 11
1628.8922990675764595
 21
4426.5707550989172887
 31
0.0
  0
LINE
  5
DD
100
AcDbEntity
100
AcDbLine
  8
Roofbeams
 62
256
370
-1
  6
ByLayer
 10
2685.5703796129764669
 20
3881.4572329421571339
 30
0.0
 11
2472.7692328522407479
 21
4657.8643361300273682
 31
0.0
  0
LINE
  5
DE
100
AcDbEntity
100
AcDbLine
  8
Roofbeams
 62
256
370
-1
  6
ByLayer
 10
2685.5703796129764669
 20
3597.7269205511038308
 30
0.0
 11
2400.4369242421271338
 21
4638.0391720416446333
 31
0.0
  0
LINE
  5
DF
100
AcDbEntity
100
AcDbLine
  8
Roofbeams
 62
256
370
-1
  6
ByLayer
 10
2685.5703796129764669
 20
2368.2289001898825518
 30
0.0
 11
2086.9969202649645013
 21
4552.1301276586600579
 31
0.0
  0
LINE
  5
E0
100
AcDbEntity
100
AcDbLine
  8
Roofbeams
 62
256
370
-1
  6
ByLayer
 10
2685.5703796129764669
 20
2084.4985877988365246
 30
0.0
 11
2014.6646116548508871
 21
4532.304963570277323
 31
0.0
  0
LINE
  5
E1
100
AcDbEntity
100
AcDbLine
  8
Roofbeams
 62
256
370
-1
  6
ByLayer
 10
2685.5703796129764669
 20
855.0005674376225215
 30
0.0
 11
1701.2246076776900736
 21
4446.3959191873000236
 31
0.0
  0
LINE
  5
E2
100
AcDbEntity
100
AcDbLine
  8
Roofbeams
 62
256
370
-1
  6
ByLayer
 10
2685.5703796129764669
 20
579.143075322448567
 30
0.0
 11
2685.5703796129764669
 21
5051.3207801808821387
 31
0.0
  0
LINE
  5
E3
100
AcDbEntity
100
AcDbLine
  8
Roofbeams
 62
256
370
-1
  6
ByLayer
 10
2685.5703796129764669
 20
979.2456641587050399
 30
0.0
 11
2685.5703796129764669
 21
5051.3207801808821387
 31
0.0
  0
LINE
  5
E4
100
AcDbEntity
100
AcDbLine
  8
Roofbeams
 62
256
370
-1
  6
ByLayer
 10
2865.5703796129764669
 20
579.143075322448567
 30
0.0
 11
2865.5703796129764669
 21
5051.3207801811440731
 31
0.0
  0
LINE
  5
E5
100
AcDbEntity
100
AcDbLine
  8
Roofbeams
 62
256
370
-1
  6
ByLayer
 10
2865.5703796129764669
 20
979.2456641587050399
 30
0.0
 11
2865.5703796129764669
 21
5051.3207801811440731
 31
0.0
  0
LINE
  5
E6
100
AcDbEntity
100
AcDbLine
  8
Roofbeams
 62
256
370
-1
  6
ByLayer
 10
2865.5703796129764669
 20
1379.3482529949615127
 30
0.0
 11
2865.5703796129764669
 21
5051.3207801811440731
 31
0.0
  0
LINE
  5
E7
100
AcDbEntity
100
AcDbLine
  8
Roofbeams
 62
256
370
-1
  6
ByLayer
 10
2685.5703796129764669
 20
1379.3482529949615127
 30
0.0
 11
2685.5703796129764669
 21
5051.3207801808821387
 31
0.0
  0
LINE
  5
E8
100
AcDbEntity
100
AcDbLine
  8
Roofbeams
 62
256
370
-1
  6
ByLayer
 10
2865.5703796129764669
 20
1779.4508418312179856
 30
0.0
 11
2865.5703796129764669
 21
5051.3207801811440731
 31
0.0
  0
LINE
  5
E9
100
AcDbEntity
100
AcDbLine
  8
Roofbeams
 62
256
370
-1
  6
ByLayer
 10
2685.5703796129764669
 20
1779.4508418312179856
 30
0.0
 11
2685.5703796129764669
 21
5051.3207801808821387
 31
0.0
  0
LINE
  5
EA
100
AcDbEntity
100
AcDbLine
  8
WALL
 62
7
370
-1
  6
CONTINUOUS
 10
3430.0836073626378493
 20
4704.538056463446992
 30
0.0
 11
2787.1557381672337215
 21
5164.0215662361661089
 31
0.0
  0
LINE
  5
EB
100
AcDbEntity
100
AcDbLine
  8
WALL
 62
7
370
-1
  6
CONTINUOUS
 10
5252.512268225198568
 20
-374.7002708109910145
 30
0.0
 11
5252.512268225198568
 21
1156.0965890396691975
 31
0.0
  0
LINE
  5
EC
100
AcDbEntity
100
AcDbLine
  8
WALL
 62
7
370
-1
  6
CONTINUOUS
 10
5355.512268225198568
 20
-374.7002708109912419
 30
0.0
 11
5355.512268225198568
 21
1156.0965890396691975
 31
0.0
  0
LINE
  5
ED
100
AcDbEntity
100
AcDbLine
  8
WALL
 62
7
370
-1
  6
CONTINUOUS
 10
5455.512268225198568
 20
1156.0965890396691975
 30
0.0
 11
5455.512268225198568
 21
-374.7002708109910145
 31
0.0
  0
LINE
  5
EE
100
AcDbEntity
100
AcDbLine
  8
WALL
 62
7
370
-1
  6
CONTINUOUS
 10
5555.512268225198568
 20
-374.7002708109910714
 30
0.0
 11
5555.512268225198568
 21
1156.0965890396691975
 31
0.0
  0
LINE
  5
EF
100
AcDbEntity
100
AcDbLine
  8
WALL
 62
7
370
-1
  6
CONTINUOUS
 10
3079.640767322447573
 20
-374.7002708109910145
 30
0.0
 11
2775.5703638233262609
 21
734.7036245156268706
 31
0.0
  0
LINE
  5
F0
100
AcDbEntity
100
AcDbLine
  8
WALL
 62
7
370
-1
  6
CONTINUOUS
 10
2963.5100898776599934
 20
-374.7002708109910145
 30
0.0
 11
2694.7806749793253402
 21
605.7616756524148514
 31
0.0
  0
LWPOLYLINE
  5
F1
  8
WINDOW
 62
1
370
-1
  6
CONTINUOUS
100
AcDbEntity
100
AcDbPolyline
 90
4
 70
1
 10
9656.7198990071192384
 20
4870.7135881985886954
 10
9856.7198990071192384
 20
4870.7135881987633184
 10
9856.7198990050237626
 20
5070.7135881987051107
 10
9656.7198990061879158
 20
5070.7135881984140724
  0
LINE
  5
F2
100
AcDbEntity
100
AcDbLine
  8
WINDOW
 62
1
370
-1
  6
CONTINUOUS
 10
9632.5547808010596782
 20
4935.6202099045622163
 30
0.0
 11
7004.8350202031433582
 21
4213.7959578325971961
 31
0.0
  0
LINE
  5
F3
100
AcDbEntity
100
AcDbLine
  8
WINDOW
 62
1
370
-1
  6
CONTINUOUS
 10
9656.7198990061879158
 20
5045.9625428742729127
 30
0.0
 11
6978.4089721171185374
 21
4310.2116274056606926
 31
0.0
  0
LWPOLYLINE
  5
F4
  8
WINDOW
 62
1
370
-1
  6
CONTINUOUS
100
AcDbEntity
100
AcDbPolyline
 90
4
 70
1
 10
6930.1874340930953622
 20
4296.9948475165874697
 10
6956.6209938710089773
 20
4200.5517714692978188
 10
7004.8425318950321525
 20
4213.7685513583710417
 10
6978.4089721171185374
 20
4310.2116274056606926
  0
LWPOLYLINE
  5
F5
  8
WINDOW
 62
1
370
-1
  6
CONTINUOUS
100
AcDbEntity
100
AcDbPolyline
 90
4
 70
1
 10
7581.1297914751339704
 20
4475.817198213073425
 10
7607.5633512539789081
 20
4379.3741221657837741
 10
7655.7848892770707607
 20
4392.5909020547987893
 10
7629.3513294991571456
 20
4489.0339781022048555
  0
LWPOLYLINE
  5
F6
  8
WINDOW
 62
1
370
-1
  6
CONTINUOUS
100
AcDbEntity
100
AcDbPolyline
 90
4
 70
1
 10
8256.1269346680492163
 20
4661.2325607956154272
 10
8282.5604944471269846
 20
4564.7894847482675686
 10
8330.7820324699860066
 20
4578.0062646372825839
 10
8304.3484726920723915
 20
4674.4493406846886501
  0
LWPOLYLINE
  5
F7
  8
WINDOW
 62
1
370
-1
  6
CONTINUOUS
100
AcDbEntity
100
AcDbPolyline
 90
4
 70
1
 10
8931.1240778311621398
 20
4846.6479233696009032
 10
8957.5576376081444323
 20
4750.204847322194837
 10
9005.7791756321676075
 20
4763.4216272112680599
 10
8979.345615855185315
 20
4859.8647032586159185
  0
LINE
  5
F8
100
AcDbEntity
100
AcDbLine
  8
WINDOW
 62
1
370
-1
  6
CONTINUOUS
 10
9606.1212210240773857
 20
5032.0632859519682825
 30
0.0
 11
9632.5547808010596782
 21
4935.6202099045622163
 31
0.0
  0
LINE
  5
F9
100
AcDbEntity
100
AcDbLine
  8
WINDOW
 62
1
370
-1
  6
CONTINUOUS
 10
9632.5547808010596782
 20
4935.6202099045622163
 30
0.0
 11
9656.7198990061879158
 21
4942.2434961246908642
 31
0.0
  0
LINE
  5
FA
100
AcDbEntity
100
AcDbLine
  8
WINDOW
 62
1
370
-1
  6
CONTINUOUS
 10
6991.6257520061917603
 20
4261.9900893821031787
 30
0.0
 11
7594.3465713639743626
 21
4427.5956601893994957
 31
0.0
  0
LINE
  5
FB
100
AcDbEntity
100
AcDbLine
  8
WINDOW
 62
1
370
-1
  6
CONTINUOUS
 10
7642.5681093879975379
 20
4440.8124400784727186
 30
0.0
 11
8269.3437145571224391
 21
4613.0110227718832903
 31
0.0
  0
LINE
  5
FC
100
AcDbEntity
100
AcDbLine
  8
WINDOW
 62
1
370
-1
  6
CONTINUOUS
 10
8317.5652525811456144
 20
4626.2278026610147208
 30
0.0
 11
8944.340857720002532
 21
4798.4263853458687663
 31
0.0
  0
LINE
  5
FD
100
AcDbEntity
100
AcDbLine
  8
WINDOW
 62
1
370
-1
  6
CONTINUOUS
 10
8992.5623957430943847
 20
4811.6431652350001968
 30
0.0
 11
9619.3380009131506085
 21
4983.8417479281779379
 31
0.0
  0
LINE
  5
FE
100
AcDbEntity
100
AcDbLine
  8
WINDOW
 62
1
370
-1
  6
CONTINUOUS
 10
10293.19938456104137
 20
4558.7732670907862484
 30
0.0
 11
9856.7198990071192384
 21
4870.7135881987633184
 31
0.0
  0
LINE
  5
FF
100
AcDbEntity
100
AcDbLine
  8
WINDOW
 62
1
370
-1
  6
CONTINUOUS
 10
10310.6648817490786314
 20
4669.2040436347015202
 30
0.0
 11
9856.7198990061879158
 21
4993.6264927266747691
 31
0.0
  0
LWPOLYLINE
  5
100
  8
WINDOW
 62
1
370
-1
  6
CONTINUOUS
100
AcDbEntity
100
AcDbPolyline
 90
4
 70
1
 10
10310.6648817490786314
 20
4669.2040436347015202
 10
10252.5201733820140362
 20
4587.845621275017038
 10
10293.1993845619726926
 20
4558.7732670911937021
 10
10351.3440929290372878
 20
4640.1316894514020532
  0
LINE
  5
101
100
AcDbEntity
100
AcDbLine
  8
WINDOW
 62
1
370
-1
  6
CONTINUOUS
 10
10281.5925275650806725
 20
4628.5248324549174868
 30
0.0
 11
9885.7922531911171973
 21
4911.3927993791876361
 31
0.0
  0
LINE
  5
102
100
AcDbEntity
100
AcDbLine
  8
WINDOW
 62
1
370
-1
  6
CONTINUOUS
 10
9856.7198990071192384
 20
4870.7135881987633184
 30
0.0
 11
9914.8646073741838336
 21
4952.0720105589716695
 31
0.0
  0
LINE
  5
103
100
AcDbEntity
100
AcDbLine
  8
DOOR
 62
2
370
-1
  6
CONTINUOUS
 10
12385.1618034089915454
 20
2125.4893970570992678
 30
0.0
 11
11485.1618034089915454
 21
2125.4893970570992678
 31
0.0
  0
LINE
  5
104
100
AcDbEntity
100
AcDbLine
  8
DOOR
 62
2
370
-1
  6
CONTINUOUS
 10
12385.1618034089915454
 20
2089.4893970572156832
 30
0.0
 11
11485.8820916400291026
 21
2089.4893970572156832
 31
0.0
  0
ARC
  5
105
100
AcDbEntity
  8
DOOR
 62
2
370
-1
  6
CONTINUOUS
100
AcDbCircle
 10
12385.1618034089915454
 20
2125.4893970570992678
 30
0.0
 40
900.0
100
AcDbArc
 50
180.0
 51
270.0
  0
LWPOLYLINE
  5
106
  8
DOOR
 62
2
370
-1
  6
CONTINUOUS
100
AcDbEntity
100
AcDbPolyline
 90
4
 70
1
 10
12320.1618034089915454
 20
1175.4893970572156832
 10
12450.1618034089915454
 20
1175.4893970572156832
 10
12450.1618034089915454
 20
1225.4893970572156832
 10
12320.1618034089915454
 20
1225.4893970572156832
  0
LWPOLYLINE
  5
107
  8
DOOR
 62
2
370
-1
  6
CONTINUOUS
100
AcDbEntity
100
AcDbPolyline
 90
4
 70
1
 10
12320.1618034089915454
 20
2125.4893970570992678
 10
12450.1618034089915454
 20
2125.4893970570992678
 10
12450.1618034089915454
 20
2175.4893970570992678
 10
12320.1618034089915454
 20
2175.4893970570992678
  0
LINE
  5
108
100
AcDbEntity
100
AcDbLine
  8
DOOR
 62
2
370
-1
  6
CONTINUOUS
 10
12385.1618034089915454
 20
2089.4893970572156832
 30
0.0
 11
12385.1618034089915454
 21
2125.4893970570992678
 31
0.0
  0
LWPOLYLINE
  5
109
  8
WINDOW
 62
1
370
-1
  6
CONTINUOUS
100
AcDbEntity
100
AcDbPolyline
 90
4
 70
1
 10
7835.9702856040094048
 20
226.0934281733934768
 10
7862.4038377220276743
 20
129.6503500267863274
 10
7910.6253767951857299
 20
142.8671260857954621
 10
7884.1918246771674603
 20
239.3102042325772345
  0
LWPOLYLINE
  5
10A
  8
WINDOW
 62
1
370
-1
  6
CONTINUOUS
100
AcDbEntity
100
AcDbPolyline
 90
4
 70
1
 10
8829.333990516141057
 20
498.3590149873052724
 10
8855.7675426341593266
 20
401.9159368402906694
 10
8903.9890817070845515
 20
415.1327128992998041
 10
8877.5555295890662819
 20
511.5757910463144071
  0
LINE
  5
10B
100
AcDbEntity
100
AcDbLine
  8
WINDOW
 62
1
370
-1
  6
CONTINUOUS
 10
8829.333990516141057
 20
498.3590149873052724
 30
0.0
 11
7884.1918246771674603
 21
239.3102042325772345
 31
0.0
  0
LINE
  5
10C
100
AcDbEntity
100
AcDbLine
  8
WINDOW
 62
1
370
-1
  6
CONTINUOUS
 10
7897.4086007361765951
 20
191.0886651590117253
 30
0.0
 11
8842.5507665751501918
 21
450.1374759136815555
 31
0.0
  0
ARC
  5
10D
100
AcDbEntity
  8
WALL
 62
7
370
-1
  6
CONTINUOUS
100
AcDbCircle
 10
9899.5930980241391808
 20
4827.8403891820926219
 30
0.0
 40
315.5432560451121162
100
AcDbArc
 50
129.6731698597625098
 51
140.3268301405580871
  0
ARC
  5
10E
100
AcDbEntity
  8
WALL
 62
7
370
-1
  6
CONTINUOUS
100
AcDbCircle
 10
9899.5930980241391808
 20
4827.8403891820926219
 30
0.0
 40
285.5432560451237123
100
AcDbArc
 50
121.7267868901972037
 51
148.2732131101691948
  0
ARC
  5
10F
100
AcDbEntity
  8
WALL
 62
7
370
-1
  6
CONTINUOUS
100
AcDbCircle
 10
9899.5930980241391808
 20
4827.8403891820926219
 30
0.0
 40
263.043256045132523
100
AcDbArc
 50
112.5835698776866991
 51
157.416430122760886
  0
ARC
  5
110
100
AcDbEntity
  8
WALL
 62
7
370
-1
  6
CONTINUOUS
100
AcDbCircle
 10
9899.5930980241391808
 20
4827.8403891820926219
 30
0.0
 40
240.5432560451411916
100
AcDbArc
 50
100.2669635647165052
 51
169.7330364352833953
  0
ARC
  5
111
100
AcDbEntity
  8
WALL
 62
7
370
-1
  6
CONTINUOUS
100
AcDbCircle
 10
9899.5930980241391808
 20
4827.8403891820926219
 30
0.0
 40
218.0432560451498887
100
AcDbArc
 50
101.3397861604456978
 51
168.6602138336700989
  0
ARC
  5
112
100
AcDbEntity
  8
WALL
 62
7
370
-1
  6
CONTINUOUS
100
AcDbCircle
 10
9899.5930980241391808
 20
4827.8403891820926219
 30
0.0
 40
203.0432560451556867
100
AcDbArc
 50
102.1899313795191944
 51
167.8100686186292876
  0
ARC
  5
113
100
AcDbEntity
  8
WALL
 62
7
370
-1
  6
CONTINUOUS
100
AcDbCircle
 10
9899.5930980241391808
 20
4827.8403891820926219
 30
0.0
 40
188.0432560451615132
100
AcDbArc
 50
103.179144336542393
 51
166.8208556626971131
  0
ARC
  5
114
100
AcDbEntity
  8
WALL
 62
7
370
-1
  6
CONTINUOUS
100
AcDbCircle
 10
9899.5930980241391808
 20
4827.8403891820926219
 30
0.0
 40
173.0432560451673112
100
AcDbArc
 50
104.3450006651394943
 51
165.6549993283983042
  0
ARC
  5
115
100
AcDbEntity
  8
WALL
 62
7
370
-1
  6
CONTINUOUS
100
AcDbCircle
 10
9899.5930980241391808
 20
4827.8403891820926219
 30
0.0
 40
158.0432560451731945
100
AcDbArc
 50
105.7401564220214993
 51
164.2598435843983964
  0
ARC
  5
116
100
AcDbEntity
  8
WALL
 62
7
370
-1
  6
CONTINUOUS
100
AcDbCircle
 10
9899.5930980241391808
 20
4827.8403891820926219
 30
0.0
 40
143.0432560451789925
100
AcDbArc
 50
107.4409016220709958
 51
162.5590983705658914
  0
ARC
  5
117
100
AcDbEntity
  8
WALL
 62
7
370
-1
  6
CONTINUOUS
100
AcDbCircle
 10
9899.5930980241391808
 20
4827.8403891820926219
 30
0.0
 40
135.5432560451818915
100
AcDbArc
 50
108.4396978445628008
 51
161.56030216387461
  0
ARC
  5
118
100
AcDbEntity
  8
WALL
 62
7
370
-1
  6
CONTINUOUS
100
AcDbCircle
 10
9899.5930980241391808
 20
4827.8403891820926219
 30
0.0
 40
128.0432560451847905
100
AcDbArc
 50
109.562426523838198
 51
160.4375734781876019
  0
ARC
  5
119
100
AcDbEntity
  8
WALL
 62
7
370
-1
  6
CONTINUOUS
100
AcDbCircle
 10
9899.5930980241391808
 20
4827.8403891820926219
 30
0.0
 40
120.5432560451877038
100
AcDbArc
 50
110.8342986801247037
 51
159.1657013241784
  0
ARC
  5
11A
100
AcDbEntity
  8
WALL
 62
7
370
-1
  6
CONTINUOUS
100
AcDbCircle
 10
9899.5930980241391808
 20
4827.8403891820926219
 30
0.0
 40
113.0432560451906028
100
AcDbArc
 50
112.2880795198750974
 51
157.7119204801248884
  0
ARC
  5
11B
100
AcDbEntity
  8
WALL
 62
7
370
-1
  6
CONTINUOUS
100
AcDbCircle
 10
9899.5930980241391808
 20
4827.8403891820926219
 30
0.0
 40
105.5432560451935018
100
AcDbArc
 50
113.9672552107765995
 51
156.0327447922707904
  0
ARC
  5
11C
100
AcDbEntity
  8
WALL
 62
7
370
-1
  6
CONTINUOUS
100
AcDbCircle
 10
9899.5930980241391808
 20
4827.8403891820926219
 30
0.0
 40
98.0432560451964719
100
AcDbArc
 50
115.9310112529523025
 51
154.0689887515052874
  0
ARC
  5
11D
100
AcDbEntity
  8
WALL
 62
7
370
-1
  6
CONTINUOUS
100
AcDbCircle
 10
9899.5930980241391808
 20
4827.8403891820926219
 30
0.0
 40
90.5432560451993567
100
AcDbArc
 50
118.2624249696630017
 51
151.7375750319160943
  0
ARC
  5
11E
100
AcDbEntity
  8
WALL
 62
7
370
-1
  6
CONTINUOUS
100
AcDbCircle
 10
9899.5930980241391808
 20
4827.8403891820926219
 30
0.0
 40
83.0432560452022841
100
AcDbArc
 50
121.0827497343177868
 51
148.9172502656820996
  0
LINE
  5
11F
100
AcDbEntity
100
AcDbLine
  8
Roofbeams
 62
7
370
-1
  6
DASHDOT
 10
9756.7199147967694444
 20
598.5358833399950527
 30
0.0
 11
9756.7199147967694444
 21
5020.7358833399921423
 31
0.0
  0
LINE
  5
120
100
AcDbEntity
100
AcDbLine
  8
Roofbeams
 62
256
370
-1
  6
DASHED
 10
9846.7199147967694444
 20
3309.2876756868427037
 30
0.0
 11
12233.6618034089915454
 21
3309.2876756868427037
 31
0.0
  0
LINE
  5
121
100
AcDbEntity
100
AcDbLine
  8
Roofbeams
 62
256
370
-1
  6
DASHED
 10
9846.7199147967694444
 20
3234.2876756868427037
 30
0.0
 11
12233.6618034089915454
 21
3234.2876756868427037
 31
0.0
  0
LINE
  5
122
100
AcDbEntity
100
AcDbLine
  8
Roofbeams
 62
256
370
-1
  6
DASHED
 10
9846.7199147967694444
 20
2909.1850868505862309
 30
0.0
 11
12233.6618034089915454
 21
2909.1850868505862309
 31
0.0
  0
LINE
  5
123
100
AcDbEntity
100
AcDbLine
  8
Roofbeams
 62
256
370
-1
  6
DASHED
 10
9846.7199147967694444
 20
2834.1850868505862309
 30
0.0
 11
12233.6618034089915454
 21
2834.1850868505862309
 31
0.0
  0
LINE
  5
124
100
AcDbEntity
100
AcDbLine
  8
Roofbeams
 62
256
370
-1
  6
DASHED
 10
9846.7199147967694444
 20
2509.082498014329758
 30
0.0
 11
12233.6618034089915454
 21
2509.082498014329758
 31
0.0
  0
LINE
  5
125
100
AcDbEntity
100
AcDbLine
  8
Roofbeams
 62
256
370
-1
  6
DASHED
 10
9846.7199147967694444
 20
2434.082498014329758
 30
0.0
 11
12233.6618034089915454
 21
2434.082498014329758
 31
0.0
  0
LINE
  5
126
100
AcDbEntity
100
AcDbLine
  8
Roofbeams
 62
256
370
-1
  6
DASHED
 10
9846.7199147967694444
 20
2108.9799091780732851
 30
0.0
 11
12233.6618034089915454
 21
2108.9799091780732851
 31
0.0
  0
LINE
  5
127
100
AcDbEntity
100
AcDbLine
  8
Roofbeams
 62
256
370
-1
  6
DASHED
 10
9846.7199147967694444
 20
2033.9799091780732851
 30
0.0
 11
12233.6618034089915454
 21
2033.9799091780732851
 31
0.0
  0
LINE
  5
128
100
AcDbEntity
100
AcDbLine
  8
Roofbeams
 62
256
370
-1
  6
DASHED
 10
9846.7199147967694444
 20
1708.8773203418168123
 30
0.0
 11
12233.6618034089915454
 21
1708.8773203418168123
 31
0.0
  0
LINE
  5
129
100
AcDbEntity
100
AcDbLine
  8
Roofbeams
 62
256
370
-1
  6
DASHED
 10
9846.7199147967694444
 20
1633.8773203418168123
 30
0.0
 11
12233.6618034089915454
 21
1633.8773203418168123
 31
0.0
  0
LINE
  5
12A
100
AcDbEntity
100
AcDbLine
  8
Roofbeams
 62
256
370
-1
  6
DASHED
 10
9846.7199147967694444
 20
1308.7747315055603394
 30
0.0
 11
12233.6618034089915454
 21
1308.7747315055603394
 31
0.0
  0
LINE
  5
12B
100
AcDbEntity
100
AcDbLine
  8
Roofbeams
 62
256
370
-1
  6
DASHED
 10
9846.7199147967694444
 20
1233.7747315055603394
 30
0.0
 11
12233.6618034089915454
 21
1233.7747315055603394
 31
0.0
  0
LINE
  5
12C
100
AcDbEntity
100
AcDbLine
  8
Roofbeams
 62
256
370
-1
  6
DASHED
 10
9846.7199147967694444
 20
908.6721426693038666
 30
0.0
 11
12233.6618034089915454
 21
908.6721426693038666
 31
0.0
  0
LINE
  5
12D
100
AcDbEntity
100
AcDbLine
  8
Roofbeams
 62
256
370
-1
  6
DASHED
 10
9846.7199147967694444
 20
833.6721426693038666
 30
0.0
 11
12233.6618034089915454
 21
833.6721426693038666
 31
0.0
  0
LINE
  5
12E
100
AcDbEntity
100
AcDbLine
  8
Roofbeams
 62
256
370
-1
  6
DASHED
 10
9846.7199147967694444
 20
3634.3902645230991766
 30
0.0
 11
11758.6180810864643718
 21
3634.3902645230991766
 31
0.0
  0
LINE
  5
12F
100
AcDbEntity
100
AcDbLine
  8
Roofbeams
 62
256
370
-1
  6
DASHED
 10
9846.7199147967694444
 20
3709.3902645230991766
 30
0.0
 11
11653.6750544835012988
 21
3709.3902645230991766
 31
0.0
  0
LINE
  5
130
100
AcDbEntity
100
AcDbLine
  8
Roofbeams
 62
256
370
-1
  6
DASHED
 10
9846.7199147967694444
 20
4034.4928533593556494
 30
0.0
 11
11198.7783927643613424
 21
4034.4928533593556494
 31
0.0
  0
LINE
  5
131
100
AcDbEntity
100
AcDbLine
  8
Roofbeams
 62
256
370
-1
  6
DASHED
 10
9846.7199147967694444
 20
4109.4928533593556494
 30
0.0
 11
11093.8353661613964505
 21
4109.4928533593556494
 31
0.0
  0
LINE
  5
132
100
AcDbEntity
100
AcDbLine
  8
Roofbeams
 62
256
370
-1
  6
DASHED
 10
9846.7199147967694444
 20
4434.5954421956121223
 30
0.0
 11
10638.9387044422564941
 21
4434.5954421956121223
 31
0.0
  0
LINE
  5
133
100
AcDbEntity
100
AcDbLine
  8
Roofbeams
 62
256
370
-1
  6
DASHED
 10
9846.7199147967694444
 20
4509.5954421956121223
 30
0.0
 11
10533.9956778392934211
 21
4509.5954421956121223
 31
0.0
  0
LINE
  5
134
100
AcDbEntity
100
AcDbLine
  8
Roofbeams
 62
256
370
-1
  6
DASHED
 10
9846.7199147967694444
 20
4509.5954421956121223
 30
0.0
 11
9846.7199147967694444
 21
4434.5954421956121223
 31
0.0
  0
LINE
  5
135
100
AcDbEntity
100
AcDbLine
  8
Roofbeams
 62
256
370
-1
  6
DASHED
 10
9846.7199147967694444
 20
4993.6264927266747691
 30
0.0
 11
12233.6618034089915454
 21
3294.8891053943079896
 31
0.0
  0
LINE
  5
136
100
AcDbEntity
100
AcDbLine
  8
Roofbeams
 62
256
370
-1
  6
DASHED
 10
12233.6618034089915454
 20
3294.8891053943079896
 30
0.0
 11
12233.6618034089915454
 21
3171.9762008673860691
 31
0.0
  0
LINE
  5
137
100
AcDbEntity
100
AcDbLine
  8
Roofbeams
 62
256
370
-1
  6
DASHED
 10
12233.6618034089915454
 20
3171.9762008673860691
 30
0.0
 11
9856.7198990071192384
 21
4870.7135881987633184
 31
0.0
  0
LINE
  5
138
100
AcDbEntity
100
AcDbLine
  8
WALL
 62
256
370
-1
  6
ByLayer
 10
7014.3102569512120681
 20
4008.9872447204543278
 30
0.0
 11
6935.0095878958636604
 21
4298.316525505593745
 31
0.0
  0
LINE
  5
139
100
AcDbEntity
100
AcDbLine
  8
WALL
 62
256
370
-1
  6
ByLayer
 10
9761.683296115939811
 20
5207.5214150820247596
 30
0.0
 11
6896.3388938520674856
 21
4420.4382746167102596
 31
0.0
  0
LINE
  5
13A
100
AcDbEntity
100
AcDbLine
  8
DOOR
 62
256
370
-1
  6
ByLayer
 10
12190.0533758129568014
 20
4265.1102269914263161
 30
0.0
 11
12220.0281935609054926
 21
4245.1377110027387971
 31
0.0
  0
LWPOLYLINE
  5
13B
  8
DOOR
 62
2
370
-1
  6
CONTINUOUS
100
AcDbEntity
100
AcDbPolyline
 90
4
 70
1
 10
10351.3440929290372878
 20
4640.1316894514020532
 10
10293.1993845619726926
 20
4558.7732670914847404
 10
10333.8785957421641797
 20
4529.7009129078942351
 10
10392.0233041089959443
 20
4611.059335267811548
  0
LINE
  5
13C
100
AcDbEntity
100
AcDbLine
  8
DOOR
 62
2
370
-1
  6
CONTINUOUS
 10
10392.2399819751735777
 20
4549.4480290756910108
 30
0.0
 11
10362.9509499249979854
 21
4570.3801240879110992
 31
0.0
  0
LINE
  5
13D
100
AcDbEntity
100
AcDbLine
  8
DOOR
 62
256
370
-1
  6
ByLayer
 10
10909.1357690638396889
 20
3872.7540470643434674
 30
0.0
 11
11143.45894378525918
 21
4200.6284891757022706
 31
0.0
  0
LWPOLYLINE
  5
13E
  8
DOOR
 62
2
370
-1
  6
CONTINUOUS
100
AcDbEntity
100
AcDbPolyline
 90
4
 70
1
 10
11775.1164842274702096
 20
3622.5992930253705708
 10
11716.9717758604056144
 20
3541.2408706658025039
 10
11757.6509870403642708
 20
3512.168516481979168
 10
11815.795695407428866
 20
3593.5269388416636502
  0
LINE
  5
13F
100
AcDbEntity
100
AcDbLine
  8
DOOR
 62
2
370
-1
  6
CONTINUOUS
 10
11746.0441300434722507
 20
3581.9200818454701221
 30
0.0
 11
11716.7550979944608116
 21
3602.8521768578648334
 31
0.0
  0
LINE
  5
140
100
AcDbEntity
100
AcDbLine
  8
DOOR
 62
2
370
-1
  6
CONTINUOUS
 10
11875.6847450259338075
 20
3677.3261138729940285
 30
0.0
 11
10481.2013857760466635
 21
4673.9264152862597257
 31
0.0
  0
ARC
  5
141
100
AcDbEntity
  8
DOOR
 62
256
370
-1
  6
ByLayer
100
AcDbCircle
 10
10392.2399819751735777
 20
4549.4480290756910108
 30
0.0
 40
814.0006048879115497
100
AcDbArc
 50
323.5560802780969425
 51
54.447612710656756
  0
ARC
  5
142
100
AcDbEntity
  8
DOOR
 62
256
370
-1
  6
ByLayer
100
AcDbCircle
 10
11716.7550979919451493
 20
3602.8521768557184259
 30
0.0
 40
814.0006048879115497
100
AcDbArc
 50
54.4476127105801027
 51
145.339145143139973
  0
LINE
  5
143
100
AcDbEntity
100
AcDbLine
  8
DOOR
 62
2
370
-1
  6
CONTINUOUS
 10
10362.9509499249979854
 20
4570.3801240879110992
 30
0.0
 11
10836.9350134431297192
 21
5233.5977532476099441
 31
0.0
  0
LINE
  5
144
100
AcDbEntity
100
AcDbLine
  8
DOOR
 62
2
370
-1
  6
CONTINUOUS
 10
10392.2399819751735777
 20
4549.4480290756910108
 30
0.0
 11
10865.5382597952993819
 21
5211.7060792120319093
 31
0.0
  0
LINE
  5
145
100
AcDbEntity
100
AcDbLine
  8
DOOR
 62
2
370
-1
  6
CONTINUOUS
 10
11716.7550979944608116
 20
3602.8521768578648334
 30
0.0
 11
12190.0533758129568014
 21
4265.1102269914263161
 31
0.0
  0
LINE
  5
146
100
AcDbEntity
100
AcDbLine
  8
DOOR
 62
2
370
-1
  6
CONTINUOUS
 10
11746.0441300434722507
 20
3581.9200818454701221
 30
0.0
 11
12220.0281935609054926
 21
4245.1377110027387971
 31
0.0
  0
LINE
  5
147
100
AcDbEntity
100
AcDbLine
  8
DOOR
 62
256
370
-1
  6
ByLayer
 10
10836.9350134431297192
 20
5233.5977532476099441
 30
0.0
 11
10865.5382597952993819
 21
5211.7060792120319093
 31
0.0
  0
LINE
  5
148
100
AcDbEntity
100
AcDbLine
  8
DOOR
 62
256
370
-1
  6
ByLayer
 10
11716.7550979944608116
 20
3602.8521768578648334
 30
0.0
 11
11716.7550979944608116
 21
3602.8521768578648334
 31
0.0
  0
LINE
  5
149
100
AcDbEntity
100
AcDbLine
  8
WALL
 62
7
370
-1
  6
CONTINUOUS
 10
12536.6618034089915454
 20
2175.4893970570992678
 30
0.0
 11
12233.6618034089915454
 21
2175.4893970570992678
 31
0.0
  0
LINE
  5
14A
100
AcDbEntity
100
AcDbLine
  8
WALL
 62
7
370
-1
  6
CONTINUOUS
 10
12536.6618034089915454
 20
2175.4893970570992678
 30
0.0
 11
12536.6618034089915454
 21
3015.4893970570992678
 31
0.0
  0
LINE
  5
14B
100
AcDbEntity
100
AcDbLine
  8
WALL
 62
7
370
-1
  6
CONTINUOUS
 10
12233.6618034089915454
 20
3421.4893970572156832
 30
0.0
 11
12448.6618034089915454
 21
3421.4893970572156832
 31
0.0
  0
LINE
  5
14C
100
AcDbEntity
100
AcDbLine
  8
WALL
 62
7
370
-1
  6
CONTINUOUS
 10
12448.6618034089915454
 20
3421.4893970572156832
 30
0.0
 11
12448.6618034089915454
 21
3318.4893970572156832
 31
0.0
  0
LINE
  5
14D
100
AcDbEntity
100
AcDbLine
  8
WALL
 62
7
370
-1
  6
CONTINUOUS
 10
9675.9302101631183177
 20
625.154483669961337
 30
0.0
 11
8904.3855849890969694
 21
413.6860667273867875
 31
0.0
  0
LINE
  5
14E
100
AcDbEntity
100
AcDbLine
  8
WALL
 62
7
370
-1
  6
CONTINUOUS
 10
8904.3855849890969694
 20
413.6860667273867875
 30
0.0
 11
8877.1590263079851866
 21
513.0224372184020467
 31
0.0
  0
LINE
  5
14F
100
AcDbEntity
100
AcDbLine
  8
WALL
 62
7
370
-1
  6
CONTINUOUS
 10
9756.7198990071192384
 20
754.0964325331733562
 30
0.0
 11
8877.1590263079851866
 21
513.0224372184020467
 31
0.0
  0
LINE
  5
150
100
AcDbEntity
100
AcDbLine
  8
WALL
 62
7
370
-1
  6
CONTINUOUS
 10
8855.7675426341593266
 20
401.9159368402906694
 30
0.0
 11
7910.6253767951857299
 21
142.8671260857954621
 31
0.0
  0
LINE
  5
151
100
AcDbEntity
100
AcDbLine
  8
WALL
 62
7
370
-1
  6
CONTINUOUS
 10
7787.3522432481404394
 20
214.3232982871122658
 30
0.0
 11
7774.1354671891313046
 21
262.5448373602703214
 31
0.0
  0
LINE
  5
152
100
AcDbEntity
100
AcDbLine
  8
WALL
 62
7
370
-1
  6
CONTINUOUS
 10
8925.3805653811432421
 20
526.2392132777022198
 30
0.0
 11
8912.1637893221341074
 21
574.4607523509766906
 31
0.0
  0
LINE
  5
153
100
AcDbEntity
100
AcDbLine
  8
WALL
 62
7
370
-1
  6
CONTINUOUS
 10
8912.1637893221341074
 20
574.4607523509766906
 30
0.0
 11
7774.1354671891313046
 21
262.5448373602703214
 31
0.0
  0
LINE
  5
154
100
AcDbEntity
100
AcDbLine
  8
WALL
 62
7
370
-1
  6
CONTINUOUS
 10
7000.0
 20
-0.0000000001164153
 30
0.0
 11
5872.6074754951987416
 21
4113.3028530639712699
 31
0.0
  0
LINE
  5
155
100
AcDbEntity
100
AcDbLine
  8
WALL
 62
7
370
-1
  6
CONTINUOUS
 10
7000.0
 20
0.0
 30
0.0
 11
6951.7567100280430168
 21
-13.1374176875106059
 31
0.0
  0
LINE
  5
156
100
AcDbEntity
100
AcDbLine
  8
WALL
 62
7
370
-1
  6
CONTINUOUS
 10
6902.9608710871543735
 20
4396.3312337883980945
 30
0.0
 11
5872.6074754951987416
 21
4113.3028530639712699
 31
0.0
  0
LINE
  5
157
100
AcDbEntity
100
AcDbLine
  8
WALL
 62
7
370
-1
  6
CONTINUOUS
 10
11798.3465851210057735
 20
3483.1190915110637434
 30
0.0
 11
11815.7956954080145806
 21
3593.5269388419692405
 31
0.0
  0
LINE
  5
158
100
AcDbEntity
100
AcDbLine
  8
WALL
 62
7
370
-1
  6
CONTINUOUS
 10
11757.6673739410471171
 20
3512.1914456943632104
 30
0.0
 11
11856.4912934880703688
 21
3564.4775138709810562
 31
0.0
  0
LINE
  5
159
100
AcDbEntity
100
AcDbLine
  8
WALL
 62
7
370
-1
  6
CONTINUOUS
 10
12233.6618034089915454
 20
1175.4893970572156832
 30
0.0
 11
12233.6618034089915454
 21
2175.4893970570992678
 31
0.0
  0
LINE
  5
15A
100
AcDbEntity
100
AcDbLine
  8
WALL
 62
7
370
-1
  6
CONTINUOUS
 10
7099.3811773431953043
 20
27.0630804359680042
 30
0.0
 11
5999.1550624910742044
 21
4041.2490173344849609
 31
0.0
  0
LINE
  5
15B
100
AcDbEntity
100
AcDbLine
  8
WALL
 62
7
370
-1
  6
CONTINUOUS
 10
7000.0
 20
0.0
 30
0.0
 11
7292.3543372331187129
 21
79.6127511856029741
 31
0.0
  0
LINE
  5
15C
100
AcDbEntity
100
AcDbLine
  8
WALL
 62
7
370
-1
  6
CONTINUOUS
 10
6930.1874340930953622
 20
4296.9948475165874697
 30
0.0
 11
5999.1550624910742044
 21
4041.2490173344849609
 31
0.0
  0
LWPOLYLINE
  5
15D
  8
WALL
 62
7
370
-1
  6
CONTINUOUS
100
AcDbEntity
100
AcDbPolyline
 90
4
 70
1
 10
11815.8120823081117123
 20
3593.5498680545715615
 10
11757.6673739410471171
 20
3512.1914456943632104
 10
11798.3465851210057735
 20
3483.1190915108891204
 10
11856.4912934880703688
 20
3564.4775138709810562
  0
LINE
  5
15E
100
AcDbEntity
100
AcDbLine
  8
WALL
 62
7
370
-1
  6
CONTINUOUS
 10
9768.3052733510266989
 20
5183.4143742537125945
 30
0.0
 11
6902.9608710871543735
 21
4396.3312337883980945
 31
0.0
  0
LINE
  5
15F
100
AcDbEntity
100
AcDbLine
  8
WALL
 62
7
370
-1
  6
ByLayer
 10
6983.1632519737377152
 20
4104.1385208900610451
 30
0.0
 11
6244.8785323891015651
 21
3901.3386566962508368
 31
0.0
  0
LINE
  5
160
100
AcDbEntity
100
AcDbLine
  8
WALL
 62
7
370
-1
  6
CONTINUOUS
 10
7009.4881030438691596
 20
4007.6655671145708766
 30
0.0
 11
6902.9608710871543735
 21
4396.3312337882816792
 31
0.0
  0
LINE
  5
161
100
AcDbEntity
100
AcDbLine
  8
WALL
 62
7
370
-1
  6
ByLayer
 10
6933.7476255891015171
 20
4090.5937567586370278
 30
0.0
 11
6933.7476255891015171
 21
4090.5937567586370278
 31
0.0
  0
LINE
  5
162
100
AcDbEntity
100
AcDbLine
  8
WALL
 62
7
370
-1
  6
ByLayer
 10
6933.7476255891015171
 20
4090.5937567586370278
 30
0.0
 11
6933.7476255891015171
 21
4090.5937567586370278
 31
0.0
  0
LINE
  5
163
100
AcDbEntity
100
AcDbLine
  8
WALL
 62
7
370
-1
  6
ByLayer
 10
6933.7476255891015171
 20
4090.5937567586370278
 30
0.0
 11
6933.7476255891015171
 21
4090.5937567586370278
 31
0.0
  0
LINE
  5
164
100
AcDbEntity
100
AcDbLine
  8
WALL
 62
7
370
-1
  6
ByLayer
 10
6933.7476255891015171
 20
4090.5937567586370278
 30
0.0
 11
6933.7476255891015171
 21
4090.5937567586370278
 31
0.0
  0
LINE
  5
165
100
AcDbEntity
100
AcDbLine
  8
WALL
 62
7
370
-1
  6
ByLayer
 10
6925.1976395482342923
 20
4088.2159126930273487
 30
0.0
 11
6872.3305269146339924
 21
4281.102099627853022
 31
0.0
  0
LINE
  5
166
100
AcDbEntity
100
AcDbLine
  8
WALL
 62
7
370
-1
  6
CONTINUOUS
 10
7862.8003410031087697
 20
128.2037038548151031
 30
0.0
 11
7835.5737823219969869
 21
227.54007434588857
 31
0.0
  0
LINE
  5
167
100
AcDbEntity
100
AcDbLine
  8
WALL
 62
7
370
-1
  6
CONTINUOUS
 10
7862.8003410031087697
 20
128.2037038548151031
 30
0.0
 11
7184.8055016309954226
 21
-57.624167533707805
 31
0.0
  0
LINE
  5
168
100
AcDbEntity
100
AcDbLine
  8
WALL
 62
7
370
-1
  6
CONTINUOUS
 10
7835.5737823219969869
 20
227.54007434588857
 30
0.0
 11
7292.3543372331187129
 21
79.6127511856029741
 31
0.0
  0
LINE
  5
169
100
AcDbEntity
100
AcDbLine
  8
WALL
 62
7
370
-1
  6
CONTINUOUS
 10
7088.3624234839808196
 20
-84.0577196516096592
 30
0.0
 11
7184.8055016309954226
 21
-57.624167533707805
 31
0.0
  0
LINE
  5
16A
100
AcDbEntity
100
AcDbLine
  8
WALL
 62
7
370
-1
  6
CONTINUOUS
 10
12233.6618034089915454
 20
3421.4893970572156832
 30
0.0
 11
11875.6847450260538608
 21
3677.3261138724628836
 31
0.0
  0
LINE
  5
16B
100
AcDbEntity
100
AcDbLine
  8
WALL
 62
7
370
-1
  6
CONTINUOUS
 10
6983.0545467271003872
 20
4104.1086605819873512
 30
0.0
 11
6244.8785323891788721
 21
3901.3386566959670745
 31
0.0
  0
LINE
  5
16C
100
AcDbEntity
100
AcDbLine
  8
WALL
 62
7
370
-1
  6
CONTINUOUS
 10
12233.6618034089915454
 20
3294.8891053943079896
 30
0.0
 11
11815.795695407083258
 21
3593.5269388419110328
 31
0.0
  0
LINE
  5
16D
100
AcDbEntity
100
AcDbLine
  8
WALL
 62
7
370
-1
  6
CONTINUOUS
 10
7292.3543372331187129
 20
79.6127511856029741
 30
0.0
 11
6244.8785323891015651
 21
3901.3386566962508368
 31
0.0
  0
LINE
  5
16E
100
AcDbEntity
100
AcDbLine
  8
WALL
 62
7
370
-1
  6
CONTINUOUS
 10
10176.9099678256570769
 20
4396.0564223705368931
 30
0.0
 11
10411.233142547076568
 21
4723.9308644818956964
 31
0.0
  0
LINE
  5
16F
100
AcDbEntity
100
AcDbLine
  8
WALL
 62
7
370
-1
  6
CONTINUOUS
 10
9702.1674594488631556
 20
4851.0233871098535019
 30
0.0
 11
6983.0545467271003872
 21
4104.1086605818709359
 31
0.0
  0
LINE
  5
170
100
AcDbEntity
100
AcDbLine
  8
WALL
 62
7
370
-1
  6
ByLayer
 10
9690.0617717885179445
 20
4743.9939260304890922
 30
0.0
 11
6367.7402673378310283
 21
3831.3834763766717515
 31
0.0
  0
LINE
  5
171
100
AcDbEntity
100
AcDbLine
  8
WALL
 62
7
370
-1
  6
ByLayer
 10
11641.3615703020223009
 20
3349.4516717581500416
 30
0.0
 11
11875.684745023441792
 21
3677.3261138695088448
 31
0.0
  0
LINE
  5
172
100
AcDbEntity
100
AcDbLine
  8
WALL
 62
7
370
-1
  6
ByLayer
 10
9702.1674594488631556
 20
4851.0233871098535019
 30
0.0
 11
10232.3846003226062749
 21
4473.6787668223551009
 31
0.0
  0
LINE
  5
173
100
AcDbEntity
100
AcDbLine
  8
WALL
 62
7
370
-1
  6
ByLayer
 10
10176.9099678256588959
 20
4396.0564223705368931
 30
0.0
 11
9690.0617717885179445
 21
4743.9939260304890922
 31
0.0
  0
LINE
  5
174
100
AcDbEntity
100
AcDbLine
  8
WALL
 62
7
370
-1
  6
ByLayer
 10
12233.6618034089915454
 20
2926.1503918133312254
 30
0.0
 11
11641.3615703050345473
 21
3349.451671762362821
 31
0.0
  0
LINE
  5
175
100
AcDbEntity
100
AcDbLine
  8
WALL
 62
7
370
-1
  6
CONTINUOUS
 10
10451.9123537270352244
 20
4694.8585102984798141
 30
0.0
 11
10411.233142547076568
 21
4723.9308644818956964
 31
0.0
  0
LINE
  5
176
100
AcDbEntity
100
AcDbLine
  8
WALL
 62
7
370
-1
  6
ByLayer
 10
11698.9133555964053812
 20
3429.980452227013302
 30
0.0
 11
12233.6618034089915454
 21
3049.4109941052956856
 31
0.0
  0
LINE
  5
177
100
AcDbEntity
100
AcDbLine
  8
WALL
 62
7
370
-1
  6
CONTINUOUS
 10
12233.6618034089915454
 20
2175.4893970570992678
 30
0.0
 11
12233.6618034089915454
 21
3421.4893970572156832
 31
0.0
  0
LINE
  5
178
100
AcDbEntity
100
AcDbLine
  8
WALL
 62
7
370
-1
  6
ByLayer
 10
12338.6618034089915454
 20
2175.4893970570992678
 30
0.0
 11
12338.6618034089915454
 21
3213.4893970572156832
 31
0.0
  0
LINE
  5
179
100
AcDbEntity
100
AcDbLine
  8
WALL
 62
7
370
-1
  6
ByLayer
 10
12431.6618034089915454
 20
2175.4893970570992678
 30
0.0
 11
12431.6618034089915454
 21
3108.4893970572156832
 31
0.0
  0
LINE
  5
17A
100
AcDbEntity
100
AcDbLine
  8
WALL
 62
7
370
-1
  6
CONTINUOUS
 10
12536.6618034089915454
 20
1175.4893970572156832
 30
0.0
 11
12233.6618034089915454
 21
1175.4893970572156832
 31
0.0
  0
LINE
  5
17B
100
AcDbEntity
100
AcDbLine
  8
WALL
 62
7
370
-1
  6
ByLayer
 10
7388.8409171775620052
 20
105.8875865603476996
 30
0.0
 11
6367.7402673378310283
 21
3831.3834763766717515
 31
0.0
  0
LINE
  5
17C
100
AcDbEntity
100
AcDbLine
  8
Roofbeams
 62
256
370
-1
  6
ByLayer
 10
9666.7199147967694444
 20
598.5358833399950527
 30
0.0
 11
9666.7199147967694444
 21
5070.7135881984286243
 31
0.0
  0
LINE
  5
17D
100
AcDbEntity
100
AcDbLine
  8
Roofbeams
 62
256
370
-1
  6
ByLayer
 10
9666.7199147967694444
 20
998.6384721762515255
 30
0.0
 11
9666.7199147967694444
 21
5070.7135881984286243
 31
0.0
  0
LINE
  5
17E
100
AcDbEntity
100
AcDbLine
  8
Roofbeams
 62
256
370
-1
  6
ByLayer
 10
9846.7199147967694444
 20
598.5358833399950527
 30
0.0
 11
9846.7199147967694444
 21
5070.7135881986905588
 31
0.0
  0
LINE
  5
17F
100
AcDbEntity
100
AcDbLine
  8
Roofbeams
 62
256
370
-1
  6
ByLayer
 10
9846.7199147967694444
 20
998.6384721762515255
 30
0.0
 11
9846.7199147967694444
 21
5070.7135881986905588
 31
0.0
  0
LINE
  5
180
100
AcDbEntity
100
AcDbLine
  8
Roofbeams
 62
256
370
-1
  6
ByLayer
 10
9846.7199147967694444
 20
1398.7410610125079984
 30
0.0
 11
9846.7199147967694444
 21
5070.7135881986905588
 31
0.0
  0
LINE
  5
181
100
AcDbEntity
100
AcDbLine
  8
Roofbeams
 62
256
370
-1
  6
ByLayer
 10
9666.7199147967694444
 20
1398.7410610125079984
 30
0.0
 11
9666.7199147967694444
 21
5070.7135881984286243
 31
0.0
  0
LINE
  5
182
100
AcDbEntity
100
AcDbLine
  8
Roofbeams
 62
256
370
-1
  6
ByLayer
 10
9846.7199147967694444
 20
1798.8436498487644712
 30
0.0
 11
9846.7199147967694444
 21
5070.7135881986905588
 31
0.0
  0
LINE
  5
183
100
AcDbEntity
100
AcDbLine
  8
Roofbeams
 62
256
370
-1
  6
ByLayer
 10
9666.7199147967694444
 20
1798.8436498487644712
 30
0.0
 11
9666.7199147967694444
 21
5070.7135881984286243
 31
0.0
  0
LINE
  5
184
100
AcDbEntity
100
AcDbLine
  8
WALL
 62
7
370
-1
  6
CONTINUOUS
 10
10411.2331425464308268
 20
4723.9308644809934776
 30
0.0
 11
9768.3052733510266989
 21
5183.4143742537125945
 31
0.0
  0
LINE
  5
185
100
AcDbEntity
100
AcDbLine
  8
WALL
 62
7
370
-1
  6
CONTINUOUS
 10
12233.6618034089915454
 20
-355.3074627934445289
 30
0.0
 11
12233.6618034089915454
 21
1175.4893970572156832
 31
0.0
  0
LINE
  5
186
100
AcDbEntity
100
AcDbLine
  8
WALL
 62
7
370
-1
  6
CONTINUOUS
 10
12336.6618034089915454
 20
-355.3074627934447562
 30
0.0
 11
12336.6618034089915454
 21
1175.4893970572156832
 31
0.0
  0
LINE
  5
187
100
AcDbEntity
100
AcDbLine
  8
WALL
 62
7
370
-1
  6
CONTINUOUS
 10
12436.6618034089915454
 20
1175.4893970572156832
 30
0.0
 11
12436.6618034089915454
 21
-355.3074627934445289
 31
0.0
  0
LINE
  5
188
100
AcDbEntity
100
AcDbLine
  8
WALL
 62
7
370
-1
  6
CONTINUOUS
 10
12536.6618034089915454
 20
-355.3074627934445857
 30
0.0
 11
12536.6618034089915454
 21
1175.4893970572156832
 31
0.0
  0
LINE
  5
189
100
AcDbEntity
100
AcDbLine
  8
WALL
 62
7
370
-1
  6
CONTINUOUS
 10
10060.7903025062405504
 20
-355.3074627934445289
 30
0.0
 11
9756.7198990071192384
 21
754.0964325331733562
 31
0.0
  0
LINE
  5
18A
100
AcDbEntity
100
AcDbLine
  8
WALL
 62
7
370
-1
  6
CONTINUOUS
 10
9944.6596250614529708
 20
-355.3074627934445289
 30
0.0
 11
9675.9302101631183177
 21
625.154483669961337
 31
0.0
  0
LINE
  5
18B
100
AcDbEntity
100
AcDbLine
  8
0
 62
256
370
-1
  6
ByLayer
 10
9291.7199147967694444
 20
624.07190223719806
 30
0.0
 11
9291.7199147967694444
 21
4634.5731668600783451
 31
0.0
  0
LINE
  5
18C
100
AcDbEntity
100
AcDbLine
  8
0
 62
256
370
-1
  6
ByLayer
 10
9216.7199147967694444
 20
603.6482054470247931
 30
0.0
 11
9216.7199147967694444
 21
4613.971372713321216
 31
0.0
  0
LINE
  5
18D
100
AcDbEntity
100
AcDbLine
  8
0
 62
256
370
-1
  6
ByLayer
 10
8891.7199147967694444
 20
515.1455193562740078
 30
0.0
 11
8891.7199147967694444
 21
4524.6969314107082027
 31
0.0
  0
LINE
  5
18E
100
AcDbEntity
100
AcDbLine
  8
0
 62
256
370
-1
  6
ByLayer
 10
8816.7199147967694444
 20
494.7218225661007409
 30
0.0
 11
8816.7199147967694444
 21
4504.0951372639519832
 31
0.0
  0
LINE
  5
18F
100
AcDbEntity
100
AcDbLine
  8
0
 62
256
370
-1
  6
ByLayer
 10
8491.7199147967694444
 20
406.2191364753499556
 30
0.0
 11
8491.7199147967694444
 21
4414.8206959613389699
 31
0.0
  0
LINE
  5
190
100
AcDbEntity
100
AcDbLine
  8
0
 62
256
370
-1
  6
ByLayer
 10
8416.7199147967694444
 20
385.7954396851766887
 30
0.0
 11
8416.7199147967694444
 21
4394.2189018145827504
 31
0.0
  0
LINE
  5
191
100
AcDbEntity
100
AcDbLine
  8
0
 62
256
370
-1
  6
ByLayer
 10
8091.7199147967694444
 20
297.2927535944259603
 30
0.0
 11
8091.7199147967694444
 21
4304.9444605119697371
 31
0.0
  0
LINE
  5
192
100
AcDbEntity
100
AcDbLine
  8
0
 62
256
370
-1
  6
ByLayer
 10
8016.7199147967694444
 20
276.8690568042526934
 30
0.0
 11
8016.7199147967694444
 21
4284.3426663652135176
 31
0.0
  0
LINE
  5
193
100
AcDbEntity
100
AcDbLine
  8
0
 62
256
370
-1
  6
ByLayer
 10
7691.7199147967694444
 20
188.3663707135019649
 30
0.0
 11
7691.7199147967694444
 21
4195.0682250626005043
 31
0.0
  0
LINE
  5
194
100
AcDbEntity
100
AcDbLine
  8
0
 62
256
370
-1
  6
ByLayer
 10
7616.7199147967694444
 20
167.942673923328698
 30
0.0
 11
7616.7199147967694444
 21
4174.4664309158433753
 31
0.0
  0
LINE
  5
195
100
AcDbEntity
100
AcDbLine
  8
0
 62
256
370
-1
  6
ByLayer
 10
7291.7199147967694444
 20
460.2345309494977528
 30
0.0
 11
7291.7199147967694444
 21
4085.1919896132312715
 31
0.0
  0
LINE
  5
196
100
AcDbEntity
100
AcDbLine
  8
0
 62
256
370
-1
  6
ByLayer
 10
7216.7199147967694444
 20
733.8727778550110088
 30
0.0
 11
7216.7199147967694444
 21
4064.5901954664741424
 31
0.0
  0
LINE
  5
197
100
AcDbEntity
100
AcDbLine
  8
0
 62
256
370
-1
  6
ByLayer
 10
6891.7199147967694444
 20
1919.6385144455684895
 30
0.0
 11
6891.7199147967694444
 21
3975.3157541638615839
 31
0.0
  0
LINE
  5
198
100
AcDbEntity
100
AcDbLine
  8
0
 62
256
370
-1
  6
ByLayer
 10
6816.7199147967694444
 20
2193.2767613510814044
 30
0.0
 11
6816.7199147967694444
 21
3954.7139600171049096
 31
0.0
  0
ENDSEC
  0
SECTION
  2
OBJECTS
  0
DICTIONARY
  5
C
100
AcDbDictionary
280
0
281
1
  3
ACAD_GROUP
350
D
  3
ACAD_LAYOUT
350
1A
  3
ACAD_MLINESTYLE
350
17
  3
ACAD_PLOTSETTINGS
350
19
  3
ACAD_PLOTSTYLENAME
350
E
  3
AcDbVariableDictionary
350
199
  0
DICTIONARY
  5
D
100
AcDbDictionary
280
0
281
1
  0
ACDBDICTIONARYWDFLT
  5
E
100
AcDbDictionary
281
1
  3
Normal
350
F
100
AcDbDictionaryWithDefault
340
F
  0
ACDBPLACEHOLDER
  5
F
  0
DICTIONARY
  5
17
100
AcDbDictionary
280
0
281
1
  3
Standard
350
18
  0
MLINESTYLE
  5
18
100
AcDbMlineStyle
  2
STANDARD
 70
0
  3

 62
256
 51
90.0
 52
90.0
 71
2
 49
0.5
 62
256
  6
BYLAYER
 49
-0.5
 62
256
  6
BYLAYER
  0
DICTIONARY
  5
19
100
AcDbDictionary
280
0
281
1
  0
DICTIONARY
  5
1A
100
AcDbDictionary
281
1
  3
Layout1
350
1E
  3
Layout2
350
26
  3
Model
350
22
  0
LAYOUT
  5
1E
100
AcDbPlotSettings
  1

  2
C:\Program Files\AutoCAD 2002\plotters\DWF ePlot (optimized for plotting).pc3
  4

  6

 40
0.0
 41
0.0
 42
0.0
 43
0.0
 44
0.0
 45
0.0
 46
0.0
 47
0.0
 48
0.0
 49
0.0
140
0.0
141
0.0
142
1.0
143
1.0
 70
688
 72
0
 73
0
 74
5
  7

 75
16
147
1.0
148
0.0
149
0.0
100
AcDbLayout
  1
Layout1
 70
1
 71
1
 10
0.0
 20
0.0
 11
420.0
 21
297.0
 12
0.0
 22
0.0
 32
0.0
 14
100000000000000000000.0
 24
100000000000000000000.0
 34
100000000000000000000.0
 15
-100000000000000000000.0
 25
-100000000000000000000.0
 35
-100000000000000000000.0
146
0.0
 13
0.0
 23
0.0
 33
0.0
 16
1.0
 26
0.0
 36
0.0
 17
0.0
 27
1.0
 37
0.0
 76
0
330
1B
  0
LAYOUT
  5
22
100
AcDbPlotSettings
  1

  2
C:\Program Files\AutoCAD 2002\plotters\DWF ePlot (optimized for plotting).pc3
  4

  6

 40
0.0
 41
0.0
 42
0.0
 43
0.0
 44
0.0
 45
0.0
 46
0.0
 47
0.0
 48
0.0
 49
0.0
140
0.0
141
0.0
142
1.0
143
1.0
 70
1712
 72
0
 73
0
 74
0
  7

 75
0
147
1.0
148
0.0
149
0.0
100
AcDbLayout
  1
Model
 70
1
 71
0
 10
0.0
 20
0.0
 11
12.0
 21
9.0
 12
0.0
 22
0.0
 32
0.0
 14
0.0
 24
0.0
 34
0.0
 15
0.0
 25
0.0
 35
0.0
146
0.0
 13
0.0
 23
0.0
 33
0.0
 16
1.0
 26
0.0
 36
0.0
 17
0.0
 27
1.0
 37
0.0
 76
0
330
1F
  0
LAYOUT
  5
26
100
AcDbPlotSettings
  1

  2
C:\Program Files\AutoCAD 2002\plotters\DWF ePlot (optimized for plotting).pc3
  4

  6

 40
0.0
 41
0.0
 42
0.0
 43
0.0
 44
0.0
 45
0.0
 46
0.0
 47
0.0
 48
0.0
 49
0.0
140
0.0
141
0.0
142
1.0
143
1.0
 70
688
 72
0
 73
0
 74
5
  7

 75
16
147
1.0
148
0.0
149
0.0
100
AcDbLayout
  1
Layout2
 70
1
 71
2
 10
0.0
 20
0.0
 11
12.0
 21
9.0
 12
0.0
 22
0.0
 32
0.0
 14
0.0
 24
0.0
 34
0.0
 15
0.0
 25
0.0
 35
0.0
146
0.0
 13
0.0
 23
0.0
 33
0.0
 16
1.0
 26
0.0
 36
0.0
 17
0.0
 27
1.0
 37
0.0
 76
0
330
23
  0
DICTIONARY
  5
199
100
AcDbDictionary
281
1
  3
DIMASSOC
350
19B
  3
HIDETEXT
350
19A
  0
DICTIONARYVAR
  5
19A
100
DictionaryVariables
280
0
  1
2
  0
DICTIONARYVAR
  5
19B
100
DictionaryVariables
280
0
  1
1
  0
ENDSEC
  0
EOF
